  0
SECTION
  2
HEADER
  9
$ACADVER
  1
AC1009
  9
$DWGCODEPAGE
  3
ansi_1252
  9
$INSBASE
 10
0.0
 20
0.0
 30
0.0
  9
$EXTMIN
 10
0.0
 20
0.0
 30
-1.370364300466502
  9
$EXTMAX
 10
390.0317888259888
 20
450.7600345611572
 30
76.4037289591521
  9
$LIMMIN
 10
0.0
 20
0.0
  9
$LIMMAX
 10
12.0
 20
9.0
  9
$ORTHOMODE
 70
     0
  9
$REGENMODE
 70
     1
  9
$FILLMODE
 70
     1
  9
$QTEXTMODE
 70
     0
  9
$MIRRTEXT
 70
     1
  9
$DRAGMODE
 70
     2
  9
$LTSCALE
 40
1.0
  9
$OSMODE
 70
    37
  9
$ATTMODE
 70
     1
  9
$TEXTSIZE
 40
0.2
  9
$TRACEWID
 40
0.05
  9
$TEXTSTYLE
  7
STANDARD
  9
$CLAYER
  8
0
  9
$CELTYPE
  6
BYLAYER
  9
$CECOLOR
 62
   256
  9
$DIMSCALE
 40
1.0
  9
$DIMASZ
 40
0.18
  9
$DIMEXO
 40
0.0625
  9
$DIMDLI
 40
0.38
  9
$DIMRND
 40
0.0
  9
$DIMDLE
 40
0.0
  9
$DIMEXE
 40
0.18
  9
$DIMTP
 40
0.0
  9
$DIMTM
 40
0.0
  9
$DIMTXT
 40
0.18
  9
$DIMCEN
 40
0.09
  9
$DIMTSZ
 40
0.0
  9
$DIMTOL
 70
     0
  9
$DIMLIM
 70
     0
  9
$DIMTIH
 70
     1
  9
$DIMTOH
 70
     1
  9
$DIMSE1
 70
     0
  9
$DIMSE2
 70
     0
  9
$DIMTAD
 70
     0
  9
$DIMZIN
 70
     0
  9
$DIMBLK
  1

  9
$DIMASO
 70
     1
  9
$DIMSHO
 70
     1
  9
$DIMPOST
  1

  9
$DIMAPOST
  1

  9
$DIMALT
 70
     0
  9
$DIMALTD
 70
     2
  9
$DIMALTF
 40
25.4
  9
$DIMLFAC
 40
1.0
  9
$DIMTOFL
 70
     0
  9
$DIMTVP
 40
0.0
  9
$DIMTIX
 70
     0
  9
$DIMSOXD
 70
     0
  9
$DIMSAH
 70
     0
  9
$DIMBLK1
  1

  9
$DIMBLK2
  1

  9
$DIMSTYLE
  2
STANDARD
  9
$DIMCLRD
 70
     0
  9
$DIMCLRE
 70
     0
  9
$DIMCLRT
 70
     0
  9
$DIMTFAC
 40
1.0
  9
$DIMGAP
 40
0.09
  9
$LUNITS
 70
     2
  9
$LUPREC
 70
     4
  9
$SKETCHINC
 40
0.1
  9
$FILLETRAD
 40
0.5
  9
$AUNITS
 70
     0
  9
$AUPREC
 70
     0
  9
$MENU
  1
.
  9
$ELEVATION
 40
0.0
  9
$PELEVATION
 40
0.0
  9
$THICKNESS
 40
0.0
  9
$LIMCHECK
 70
     0
  9
$CHAMFERA
 40
0.5
  9
$CHAMFERB
 40
0.5
  9
$SKPOLY
 70
     0
  9
$TDCREATE
 40
2305814.617581019
  9
$TDUPDATE
 40
2305814.61758103
  9
$TDINDWG
 40
0.0000000116
  9
$TDUSRTIMER
 40
0.0000000116
  9
$USRTIMER
 70
     1
  9
$ANGBASE
 50
0.0
  9
$ANGDIR
 70
     0
  9
$PDMODE
 70
     0
  9
$PDSIZE
 40
0.0
  9
$PLINEWID
 40
0.0
  9
$COORDS
 70
     1
  9
$SPLFRAME
 70
     0
  9
$SPLINETYPE
 70
     6
  9
$SPLINESEGS
 70
     8
  9
$ATTDIA
 70
     0
  9
$ATTREQ
 70
     1
  9
$HANDLING
 70
     1
  9
$HANDSEED
  5
129
  9
$SURFTAB1
 70
     6
  9
$SURFTAB2
 70
     6
  9
$SURFTYPE
 70
     6
  9
$SURFU
 70
     6
  9
$SURFV
 70
     6
  9
$UCSNAME
  2

  9
$UCSORG
 10
0.0
 20
0.0
 30
0.0
  9
$UCSXDIR
 10
1.0
 20
0.0
 30
0.0
  9
$UCSYDIR
 10
0.0
 20
1.0
 30
0.0
  9
$PUCSNAME
  2

  9
$PUCSORG
 10
0.0
 20
0.0
 30
0.0
  9
$PUCSXDIR
 10
1.0
 20
0.0
 30
0.0
  9
$PUCSYDIR
 10
0.0
 20
1.0
 30
0.0
  9
$USERI1
 70
     0
  9
$USERI2
 70
     0
  9
$USERI3
 70
     0
  9
$USERI4
 70
     0
  9
$USERI5
 70
     0
  9
$USERR1
 40
0.0
  9
$USERR2
 40
0.0
  9
$USERR3
 40
0.0
  9
$USERR4
 40
0.0
  9
$USERR5
 40
0.0
  9
$WORLDVIEW
 70
     1
  9
$SHADEDGE
 70
     3
  9
$SHADEDIF
 70
    70
  9
$TILEMODE
 70
     1
  9
$MAXACTVP
 70
    64
  9
$PLIMCHECK
 70
     0
  9
$PEXTMIN
 10
1.000000000000000E+20
 20
1.000000000000000E+20
 30
1.000000000000000E+20
  9
$PEXTMAX
 10
-1.000000000000000E+20
 20
-1.000000000000000E+20
 30
-1.000000000000000E+20
  9
$PLIMMIN
 10
0.0
 20
0.0
  9
$PLIMMAX
 10
12.0
 20
9.0
  9
$UNITMODE
 70
     0
  9
$VISRETAIN
 70
     1
  9
$PLINEGEN
 70
     0
  9
$PSLTSCALE
 70
     1
  0
ENDSEC
  0
SECTION
  2
TABLES
  0
TABLE
  2
VPORT
 70
     1
  0
VPORT
  2
*ACTIVE
 70
     0
 10
0.0
 20
0.0
 11
1.0
 21
1.0
 12
0.0
 22
0.0
 13
0.0
 23
0.0
 14
0.5
 24
0.5
 15
0.5
 25
0.5
 16
0.0
 26
0.0
 36
1.0
 17
311.9817921773687
 27
276.7813978500062
 37
0.0
 40
165.8931072733679
 41
0.9597867121605326
 42
50.0
 43
0.0
 44
0.0
 50
0.0
 51
0.0
 71
     0
 72
   100
 73
     1
 74
     3
 75
     0
 76
     0
 77
     0
 78
     0
  0
ENDTAB
  0
TABLE
  2
LTYPE
 70
    13
  0
LTYPE
  2
CONTINUOUS
 70
     0
  3
Solid line
 72
    65
 73
     0
 40
0.0
  0
LTYPE
  2
VOLLINIE
 70
     0
  3
____________________
 72
    65
 73
     0
 40
0.0
  0
LTYPE
  2
ZWEISTRICHPUNKT
 70
     0
  3
__ __ . __ __ . __ 
 72
    65
 73
     6
 40
22.225
 49
0.25
 49
-0.125
 49
0.25
 49
-0.125
 49
0.0
 49
-0.125
  0
LTYPE
  2
STRICHPUNKT_LANG
 70
     0
  3
___ _ ___ _ ___ _ _
 72
    65
 73
     4
 40
28.575
 49
0.75
 49
-0.125
 49
0.125
 49
-0.125
  0
LTYPE
  2
STRICHPUNKT
 70
     0
  3
_._._._._._._._._._
 72
    65
 73
     4
 40
12.7
 49
0.25
 49
-0.125
 49
0.0
 49
-0.125
  0
LTYPE
  2
STRICHLINIE_LANG
 70
     0
  3
_ _ _ _ _ _ _ _ _ _
 72
    65
 73
     2
 40
9.524999999999999
 49
0.25
 49
-0.125
  0
LTYPE
  2
STRICHZWEIPKT__KURZ
 70
     0
  3
__..__..__..__..__.
 72
    65
 73
     6
 40
15.875
 49
0.25
 49
-0.125
 49
0.0
 49
-0.125
 49
0.0
 49
-0.125
  0
LTYPE
  2
GEPUNKTET
 70
     0
  3
...................
 72
    65
 73
     2
 40
3.175
 49
0.0
 49
-0.125
  0
LTYPE
  2
STRICHLINIE
 70
     0
  3
__ __ __ __ __ __ _
 72
    65
 73
     2
 40
4.762499999999999
 49
0.125
 49
-0.0625
  0
LTYPE
  2
STRICHZWEIPUNKT
 70
     0
  3
___ _ _ ___ _ _ ___
 72
    65
 73
     6
 40
31.75
 49
0.625
 49
-0.125
 49
0.125
 49
-0.125
 49
0.125
 49
-0.125
  0
LTYPE
  2
STRICHZWEIPKT__LANG
 70
     0
  3
________ _ _ ______
 72
    65
 73
     6
 40
37.2745
 49
1.0
 49
-0.0725
 49
0.125
 49
-0.0725
 49
0.125
 49
-0.0725
  0
LTYPE
  2
STRICHLINIE_KURZ
 70
     0
  3
_ _ _ _ _ _ _ _ _ _
 72
    65
 73
     2
 40
3.682999999999999
 49
0.0725
 49
-0.0725
  0
LTYPE
  2
HIDDEN
 70
     0
  3
-- -- -- -- -- -- -
 72
    65
 73
     2
 40
76.19999999999999
 49
2.0
 49
-1.0
  0
ENDTAB
  0
TABLE
  2
LAYER
 70
     6
  0
LAYER
  2
0
 70
     0
 62
     7
  6
CONTINUOUS
  0
LAYER
  2
HILFSLINIEN
 70
     0
 62
     7
  6
CONTINUOUS
  0
LAYER
  2
LAYER1
 70
     0
 62
     7
  6
CONTINUOUS
  0
LAYER
  2
DWG_50480
 70
     0
 62
     7
  6
CONTINUOUS
  0
LAYER
  2
DWG_50480_MODEL
 70
     0
 62
     7
  6
CONTINUOUS
  0
LAYER
  2
DWG_50480_MODEL_1L
 70
     0
 62
     4
  6
CONTINUOUS
  0
ENDTAB
  0
TABLE
  2
STYLE
 70
     1
  0
STYLE
  2
STANDARD
 70
     0
 40
0.0
 41
1.0
 50
0.0
 71
     0
 42
0.2
  3
txt
  4

  0
ENDTAB
  0
TABLE
  2
VIEW
 70
     0
  0
ENDTAB
  0
TABLE
  2
UCS
 70
     0
  0
ENDTAB
  0
TABLE
  2
APPID
 70
     2
  0
APPID
  2
ACAD
 70
     0
  0
APPID
  2
PUNCH__SOFTWARE_VIACAD
 70
     0
  0
ENDTAB
  0
TABLE
  2
DIMSTYLE
 70
     1
  0
DIMSTYLE
  2
STANDARD
 70
     0
  3

  4

  5

  6

  7

 40
1.0
 41
0.18
 42
0.0625
 43
0.38
 44
0.18
 45
0.0
 46
0.0
 47
0.0
 48
0.0
140
0.18
141
0.09
142
0.0
143
25.4
144
1.0
145
0.0
146
1.0
147
0.09
 71
     0
 72
     0
 73
     1
 74
     1
 75
     0
 76
     0
 77
     0
 78
     0
170
     0
171
     2
172
     0
173
     0
174
     0
175
     0
176
     0
177
     0
178
     0
  0
ENDTAB
  0
ENDSEC
  0
SECTION
  2
BLOCKS
  0
BLOCK
  8
0
  2
$MODEL_SPACE
 70
     0
 10
0.0
 20
0.0
 30
0.0
  3
$MODEL_SPACE
  1

  0
ENDBLK
  5
21
  8
0
  0
BLOCK
 67
     1
  8
0
  2
$PAPER_SPACE
 70
     0
 10
0.0
 20
0.0
 30
0.0
  3
$PAPER_SPACE
  1

  0
ENDBLK
  5
1D
 67
     1
  8
0
  0
ENDSEC
  0
SECTION
  2
ENTITIES
  0
LINE
  5
70
  8
HILFSLINIEN
  6
VOLLINIE
 62
    18
 10
380.8317921773688
 20
307.9015484742061
 30
0.0
 11
380.8317921773688
 21
312.7015484742061
 31
0.0
  0
ARC
  5
71
  8
HILFSLINIEN
  6
VOLLINIE
 62
    18
 10
245.4317921773686
 20
310.301548474206
 30
0.0
 40
11.50000000000002
 50
28.78220468058089
 51
180.0
  0
LINE
  5
72
  8
HILFSLINIEN
  6
VOLLINIE
 62
    18
 10
255.9927143705317
 20
262.5015484742059
 30
0.0
 11
238.9317921773687
 21
262.5015484742059
 31
0.0
  0
LINE
  5
73
  8
HILFSLINIEN
  6
VOLLINIE
 62
    18
 10
260.1834175000349
 20
268.2499231515397
 30
0.0
 11
234.8104718338091
 21
293.6228688177655
 31
0.0
  0
LINE
  5
74
  8
HILFSLINIEN
  6
VOLLINIE
 62
    18
 10
264.4260581871544
 20
272.4925638386587
 30
0.0
 11
233.9317921773688
 21
302.9868298484445
 31
0.0
  0
LINE
  5
75
  8
HILFSLINIEN
  6
VOLLINIE
 62
    18
 10
264.3317078985893
 20
268.3442734401045
 30
0.0
 11
233.9317921773688
 21
298.7441891613251
 31
0.0
  0
ARC
  5
76
  8
HILFSLINIEN
  6
VOLLINIE
 62
    18
 10
271.0317921773687
 20
288.001548474206
 30
0.0
 40
10.0
 50
312.3941354458864
 51
90.00000000000065
  0
ARC
  5
77
  8
HILFSLINIEN
  6
VOLLINIE
 62
    18
 10
255.9927143705319
 20
267.5015484742058
 30
0.0
 40
4.999999999999805
 50
269.9999999999977
 51
312.394135445887
  0
ARC
  5
78
  8
HILFSLINIEN
  6
VOLLINIE
 62
    18
 10
262.2081916723303
 20
270.4677896663637
 30
0.0
 40
3.003105447095095
 50
222.3941354458905
 51
314.9999999999985
  0
ARC
  5
79
  8
HILFSLINIEN
  6
VOLLINIE
 62
    18
 10
262.2081916723292
 20
270.4677896663626
 30
0.0
 40
3.003105447095107
 50
315.0000000000276
 51
47.60586455410101
  0
CIRCLE
  5
7A
  8
HILFSLINIEN
  6
VOLLINIE
 62
    18
 10
271.0317921773686
 20
288.001548474206
 30
0.0
 40
4.75
  0
ARC
  5
7B
  8
HILFSLINIEN
  6
VOLLINIE
 62
    18
 10
257.263951743568
 20
316.8015484742061
 30
0.0
 40
2.000000000000174
 50
208.7822046805832
 51
270.0
  0
ARC
  5
7C
  8
HILFSLINIEN
  6
VOLLINIE
 62
    18
 10
259.0317921773686
 20
312.8015484742059
 30
0.0
 40
2.000000000000058
 50
0.0
 51
89.99999999999837
  0
LINE
  5
7D
  8
HILFSLINIEN
  6
VOLLINIE
 62
    18
 10
271.0317921773686
 20
298.001548474206
 30
0.0
 11
260.9317921773686
 21
298.001548474206
 31
0.0
  0
ARC
  5
7E
  8
HILFSLINIEN
  6
VOLLINIE
 62
    18
 10
260.9317921773685
 20
303.801548474206
 30
0.0
 40
1.999999999999961
 50
89.99999999999837
 51
180.0
  0
ARC
  5
7F
  8
HILFSLINIEN
  6
VOLLINIE
 62
    18
 10
260.9317921773688
 20
300.0015484742062
 30
0.0
 40
2.000000000000155
 50
180.0
 51
269.9999999999951
  0
LINE
  5
80
  8
HILFSLINIEN
  6
VOLLINIE
 62
    18
 10
258.9317921773686
 20
303.801548474206
 30
0.0
 11
258.9317921773686
 21
300.001548474206
 31
0.0
  0
LINE
  5
81
  8
HILFSLINIEN
  6
VOLLINIE
 62
    18
 10
261.0317921773687
 20
312.801548474206
 30
0.0
 11
261.0317921773687
 21
305.801548474206
 31
0.0
  0
LINE
  5
82
  8
HILFSLINIEN
  6
VOLLINIE
 62
    18
 10
261.0317921773687
 20
305.801548474206
 30
0.0
 11
260.9317921773686
 21
305.801548474206
 31
0.0
  0
LINE
  5
83
  8
HILFSLINIEN
  6
VOLLINIE
 62
    18
 10
259.0317921773687
 20
314.801548474206
 30
0.0
 11
257.263951743568
 21
314.801548474206
 31
0.0
  0
ARC
  5
84
  8
HILFSLINIEN
  6
VOLLINIE
 62
    18
 10
236.9317921773684
 20
295.7441891613252
 30
0.0
 40
2.999999999999808
 50
134.9999999999958
 51
225.0000000000042
  0
LINE
  5
85
  8
HILFSLINIEN
  6
VOLLINIE
 62
    18
 10
233.9317921773686
 20
310.301548474206
 30
0.0
 11
233.9317921773688
 21
267.501548474206
 31
0.0
  0
ARC
  5
86
  8
HILFSLINIEN
  6
VOLLINIE
 62
    18
 10
238.9317921773688
 20
267.5015484742059
 30
0.0
 40
5.0
 50
180.0
 51
269.9999999999993
  0
ARC
  5
87
  8
HILFSLINIEN
  6
VOLLINIE
 62
    18
 10
236.9317921773687
 20
295.7441891613251
 30
0.0
 40
3.000000000000048
 50
45.00000000000077
 51
134.9999999999989
  0
CIRCLE
  5
88
  8
HILFSLINIEN
  6
VOLLINIE
 62
    18
 10
245.4317921773687
 20
310.301548474206
 30
0.0
 40
4.75
  0
CIRCLE
  5
89
  8
HILFSLINIEN
  6
VOLLINIE
 62
    18
 10
245.4317921773687
 20
310.301548474206
 30
0.0
 40
4.75
  0
LINE
  5
8A
  8
HILFSLINIEN
  6
VOLLINIE
 62
    18
 10
264.3317078985893
 20
352.2588235083076
 30
0.0
 11
233.9317921773688
 21
321.8589077870869
 31
0.0
  0
LINE
  5
8B
  8
HILFSLINIEN
  6
VOLLINIE
 62
    18
 10
264.4260581871544
 20
348.1105331097534
 30
0.0
 11
233.9317921773688
 21
317.6162670999676
 31
0.0
  0
LINE
  5
8C
  8
HILFSLINIEN
  6
VOLLINIE
 62
    18
 10
260.1834175000349
 20
352.3531737968723
 30
0.0
 11
234.8104718338091
 21
326.9802281306465
 31
0.0
  0
LINE
  5
8D
  8
HILFSLINIEN
  6
VOLLINIE
 62
    18
 10
255.9927143705317
 20
358.1015484742061
 30
0.0
 11
238.9317921773687
 21
358.101548474206
 31
0.0
  0
CIRCLE
  5
8E
  8
HILFSLINIEN
  6
VOLLINIE
 62
    18
 10
271.0317921773686
 20
332.601548474206
 30
0.0
 40
4.75
  0
ARC
  5
8F
  8
HILFSLINIEN
  6
VOLLINIE
 62
    18
 10
262.2081916723293
 20
350.1353072820494
 30
0.0
 40
3.003105447095035
 50
312.394135445899
 51
44.99999999997316
  0
LINE
  5
90
  8
HILFSLINIEN
  6
VOLLINIE
 62
    18
 10
259.3638483649337
 20
356.7941702517224
 30
0.0
 11
277.7740601661726
 21
339.9867920292386
 31
0.0
  0
ARC
  5
91
  8
HILFSLINIEN
  6
VOLLINIE
 62
    18
 10
255.9927143705322
 20
353.101548474207
 30
0.0
 40
4.999999999999075
 50
47.60586455410971
 51
90.00000000000554
  0
ARC
  5
92
  8
HILFSLINIEN
  6
VOLLINIE
 62
    18
 10
262.2081916723303
 20
350.1353072820485
 30
0.0
 40
3.003105447095033
 50
45.00000000000077
 51
137.6058645541111
  0
LINE
  5
93
  8
HILFSLINIEN
  6
VOLLINIE
 62
    18
 10
261.0317921773687
 20
307.8015484742061
 30
0.0
 11
261.0317921773687
 21
314.801548474206
 31
0.0
  0
ARC
  5
94
  8
HILFSLINIEN
  6
VOLLINIE
 62
    18
 10
260.9317921773688
 20
320.6015484742059
 30
0.0
 40
2.000000000000155
 50
90.00000000000487
 51
180.0
  0
ARC
  5
95
  8
HILFSLINIEN
  6
VOLLINIE
 62
    18
 10
260.9317921773687
 20
316.8015484742061
 30
0.0
 40
2.000000000000058
 50
180.0
 51
269.9999999999984
  0
LINE
  5
96
  8
HILFSLINIEN
  6
VOLLINIE
 62
    18
 10
258.9317921773686
 20
316.8015484742061
 30
0.0
 11
258.9317921773686
 21
320.601548474206
 31
0.0
  0
LINE
  5
97
  8
HILFSLINIEN
  6
VOLLINIE
 62
    18
 10
261.0317921773687
 20
314.8015484742061
 30
0.0
 11
260.9317921773686
 21
314.8015484742061
 31
0.0
  0
LINE
  5
98
  8
HILFSLINIEN
  6
VOLLINIE
 62
    18
 10
233.9317921773686
 20
310.301548474206
 30
0.0
 11
233.9317921773688
 21
353.1015484742061
 31
0.0
  0
ARC
  5
99
  8
HILFSLINIEN
  6
VOLLINIE
 62
    18
 10
238.9317921773688
 20
353.101548474206
 30
0.0
 40
5.000000000000001
 50
90.00000000000065
 51
180.0
  0
ARC
  5
9A
  8
HILFSLINIEN
  6
VOLLINIE
 62
    18
 10
236.9317921773687
 20
324.8589077870869
 30
0.0
 40
2.99999999999998
 50
225.0000000000008
 51
315.0000000000011
  0
ARC
  5
9B
  8
HILFSLINIEN
  6
VOLLINIE
 62
    18
 10
236.9317921773684
 20
324.8589077870869
 30
0.0
 40
2.999999999999808
 50
134.9999999999958
 51
225.0000000000042
  0
ARC
  5
9C
  8
HILFSLINIEN
  6
VOLLINIE
 62
    18
 10
336.0317921773687
 20
111.6015484742054
 30
0.0
 40
230.0000000000006
 50
77.21818779587741
 51
100.4525751644433
  0
ARC
  5
9D
  8
HILFSLINIEN
  6
VOLLINIE
 62
    18
 10
336.0317921773689
 20
111.6015484742064
 30
0.0
 40
223.9999999999996
 50
77.21818779587738
 51
93.4539564025487
  0
ARC
  5
9E
  8
HILFSLINIEN
  6
VOLLINIE
 62
    18
 10
336.0317921773689
 20
111.6015484742085
 30
0.0
 40
227.9999999999976
 50
77.21818779587728
 51
100.4525751644434
  0
ARC
  5
9F
  8
HILFSLINIEN
  6
VOLLINIE
 62
    18
 10
336.0317921773681
 20
111.6015484742025
 30
0.0
 40
222.0000000000036
 50
77.21818779587744
 51
93.45395640254846
  0
ARC
  5
A0
  8
HILFSLINIEN
  6
VOLLINIE
 62
    18
 10
386.0317921773688
 20
332.0011854975007
 30
0.0
 40
2.000000000000024
 50
257.2181877958745
 51
77.21818779587966
  0
ARC
  5
A1
  8
HILFSLINIEN
  6
VOLLINIE
 62
    18
 10
386.0317921773687
 20
332.0011854975007
 30
0.0
 40
3.999999999999979
 50
257.2181877958785
 51
77.21818779587691
  0
ARC
  5
A2
  8
HILFSLINIEN
  6
VOLLINIE
 62
    18
 10
292.0317921773686
 20
337.4548663387821
 30
0.0
 40
1.999999999999966
 50
180.0
 51
276.0648418465555
  0
ARC
  5
A3
  8
HILFSLINIEN
  6
VOLLINIE
 62
    18
 10
292.0317921773686
 20
326.7374650864289
 30
0.0
 40
1.999999999999954
 50
180.0
 51
304.5170607558827
  0
ARC
  5
A4
  8
HILFSLINIEN
  6
VOLLINIE
 62
    18
 10
295.0317921773687
 20
320.2890373840784
 30
0.0
 40
5.00000000000006
 50
125.7951214785084
 51
180.0
  0
ARC
  5
A5
  8
HILFSLINIEN
  6
VOLLINIE
 62
    18
 10
288.862175170951
 20
367.2869552370234
 30
0.0
 40
29.99999999999902
 50
242.7941131582346
 51
280.4525751644438
  0
ARC
  5
A6
  8
HILFSLINIEN
  6
VOLLINIE
 62
    18
 10
326.0308887095047
 20
277.3000153645979
 30
0.0
 40
58.00000000000055
 50
93.4539564025488
 51
125.7951214785073
  0
ARC
  5
A7
  8
HILFSLINIEN
  6
VOLLINIE
 62
    18
 10
306.2747431148386
 20
325.8650306773504
 30
0.0
 40
10.00000000000004
 50
264.5000000000001
 51
329.9999999999998
  0
LINE
  5
A8
  8
HILFSLINIEN
  6
VOLLINIE
 62
    18
 10
322.0317921773686
 20
333.1570402310077
 30
0.0
 11
314.9349971526831
 21
320.8650306773504
 31
0.0
  0
ARC
  5
A9
  8
HILFSLINIEN
  6
VOLLINIE
 62
    18
 10
288.8621751709539
 20
367.2869552370018
 30
0.0
 40
31.99999999997722
 50
276.0648418465543
 51
280.4525751644457
  0
ARC
  5
AA
  8
HILFSLINIEN
  6
VOLLINIE
 62
    18
 10
271.0317921773686
 20
332.601548474206
 30
0.0
 40
9.000000000000055
 50
62.79411315823554
 51
192.1268233353576
  0
CIRCLE
  5
AB
  8
HILFSLINIEN
  6
VOLLINIE
 62
    18
 10
271.0317921773686
 20
332.6015484742061
 30
0.0
 40
4.75
  0
ARC
  5
AC
  8
HILFSLINIEN
  6
VOLLINIE
 62
    18
 10
228.013652374268
 20
323.3581915147037
 30
0.0
 40
34.9999999999987
 50
342.7379820062665
 51
12.1268233353584
  0
CIRCLE
  5
AD
  8
HILFSLINIEN
  6
VOLLINIE
 62
    18
 10
270.0317921773686
 20
310.3015484742061
 30
0.0
 40
4.75
  0
ARC
  5
AE
  8
HILFSLINIEN
  6
VOLLINIE
 62
    18
 10
336.0317921773683
 20
509.0015484742102
 30
0.0
 40
222.0000000000041
 50
266.5460435974515
 51
282.7818122041224
  0
ARC
  5
AF
  8
HILFSLINIEN
  6
VOLLINIE
 62
    18
 10
336.0317921773687
 20
509.0015484742056
 30
0.0
 40
227.9999999999996
 50
259.5474248355567
 51
282.7818122041226
  0
ARC
  5
B0
  8
HILFSLINIEN
  6
VOLLINIE
 62
    18
 10
336.0317921773687
 20
509.0015484742055
 30
0.0
 40
223.9999999999995
 50
266.5460435974513
 51
282.7818122041226
  0
ARC
  5
B1
  8
HILFSLINIEN
  6
VOLLINIE
 62
    18
 10
336.0317921773687
 20
509.0015484742074
 30
0.0
 40
230.0000000000014
 50
259.5474248355567
 51
282.7818122041225
  0
ARC
  5
B2
  8
HILFSLINIEN
  6
VOLLINIE
 62
    18
 10
386.0317921773687
 20
288.6019114509114
 30
0.0
 40
4.000000000000006
 50
282.7818122041231
 51
102.7818122041213
  0
ARC
  5
B3
  8
HILFSLINIEN
  6
VOLLINIE
 62
    18
 10
386.0317921773688
 20
288.6019114509114
 30
0.0
 40
1.999999999999967
 50
282.7818122041207
 51
102.7818122041258
  0
CIRCLE
  5
B4
  8
HILFSLINIEN
  6
VOLLINIE
 62
    18
 10
270.0317921773686
 20
310.301548474206
 30
0.0
 40
4.75
  0
ARC
  5
B5
  8
HILFSLINIEN
  6
VOLLINIE
 62
    18
 10
295.031792177369
 20
300.3140595643338
 30
0.0
 40
5.000000000000269
 50
180.0
 51
234.2048785214903
  0
ARC
  5
B6
  8
HILFSLINIEN
  6
VOLLINIE
 62
    18
 10
292.0317921773686
 20
293.8656318619832
 30
0.0
 40
1.999999999999911
 50
55.48293924411508
 51
180.0
  0
ARC
  5
B7
  8
HILFSLINIEN
  6
VOLLINIE
 62
    18
 10
292.0317921773686
 20
283.1482306096299
 30
0.0
 40
1.999999999999966
 50
83.93515815344453
 51
180.0
  0
LINE
  5
B8
  8
HILFSLINIEN
  6
VOLLINIE
 62
    18
 10
322.0317921773686
 20
287.4460567174043
 30
0.0
 11
314.9349971526831
 21
299.7380662710617
 31
0.0
  0
ARC
  5
B9
  8
HILFSLINIEN
  6
VOLLINIE
 62
    18
 10
326.0308887095047
 20
343.3030815838141
 30
0.0
 40
58.00000000000056
 50
234.2048785214927
 51
266.5460435974512
  0
ARC
  5
BA
  8
HILFSLINIEN
  6
VOLLINIE
 62
    18
 10
306.2747431148386
 20
294.7380662710615
 30
0.0
 40
10.0000000000002
 50
30.00000000000084
 51
95.49999999999979
  0
ARC
  5
BB
  8
HILFSLINIEN
  6
VOLLINIE
 62
    18
 10
288.8621751709492
 20
253.3161417113724
 30
0.0
 40
32.00000000001533
 50
79.5474248355582
 51
83.93515815344439
  0
CIRCLE
  5
BC
  8
HILFSLINIEN
  6
VOLLINIE
 62
    18
 10
271.0317921773686
 20
288.001548474206
 30
0.0
 40
4.75
  0
ARC
  5
BD
  8
HILFSLINIEN
  6
VOLLINIE
 62
    18
 10
370.1547760238783
 20
167.7221234527605
 30
0.0
 40
47.99999999999831
 50
70.70663192744328
 51
97.90856867699384
  0
ARC
  5
BE
  8
HILFSLINIEN
  6
VOLLINIE
 62
    18
 10
370.1275647339925
 20
247.1274307979039
 30
0.0
 40
48.12491008220275
 50
262.979188841864
 51
289.2756341218362
  0
ARC
  5
BF
  8
HILFSLINIEN
  6
VOLLINIE
 62
    18
 10
370.1259402732534
 20
247.1347625760006
 30
0.0
 40
46.13236722723206
 50
263.0295049026763
 51
289.2737637508118
  0
ARC
  5
C0
  8
HILFSLINIEN
  6
VOLLINIE
 62
    18
 10
370.1259402732532
 20
167.5919772942479
 30
0.0
 40
46.13236722723468
 50
70.72623624918909
 51
96.97049509732325
  0
ARC
  5
C1
  8
HILFSLINIEN
  6
VOLLINIE
 62
    18
 10
384.0317921773688
 20
207.3633699351255
 30
0.0
 40
6.000000000000006
 50
289.2933680725561
 51
70.70663192744394
  0
ARC
  5
C2
  8
HILFSLINIEN
  6
VOLLINIE
 62
    18
 10
384.0317921773688
 20
207.3633699351255
 30
0.0
 40
4.000000000000029
 50
289.2933680725559
 51
70.7066319274441
  0
ARC
  5
C3
  8
HILFSLINIEN
  6
VOLLINIE
 62
    18
 10
288.0317921773688
 20
205.3633699351255
 30
0.0
 40
1.999999999999961
 50
0.0
 51
90.00000000000163
  0
ARC
  5
C4
  8
HILFSLINIEN
  6
VOLLINIE
 62
    18
 10
292.0317921773687
 20
203.8633699351255
 30
0.0
 40
1.999999999999961
 50
89.99999999999837
 51
180.0
  0
ARC
  5
C5
  8
HILFSLINIEN
  6
VOLLINIE
 62
    18
 10
292.0317921773687
 20
201.3633699351256
 30
0.0
 40
1.999999999999961
 50
180.0
 51
270.0000000000017
  0
LINE
  5
C6
  8
HILFSLINIEN
  6
VOLLINIE
 62
    18
 10
320.6570899492613
 20
208.8633699351255
 30
0.0
 11
287.457123930796
 21
208.8633699351255
 31
0.0
  0
LINE
  5
C7
  8
HILFSLINIEN
  6
VOLLINIE
 62
    18
 10
263.0317921773687
 20
215.3633699351257
 30
0.0
 11
304.4723245012495
 21
215.3633699351256
 31
0.0
  0
ARC
  5
C8
  8
HILFSLINIEN
  6
VOLLINIE
 62
    18
 10
336.0317921773688
 20
1.363369935130834
 30
0.0
 40
199.9999999999947
 50
81.89038554400564
 51
97.2522468650596
  0
ARC
  5
C9
  8
HILFSLINIEN
  6
VOLLINIE
 62
    18
 10
336.0317921773691
 20
413.3633699351275
 30
0.0
 40
200.000000000002
 50
262.7477531349405
 51
277.9085686769931
  0
ARC
  5
CA
  8
HILFSLINIEN
  6
VOLLINIE
 62
    18
 10
336.0317921773691
 20
1.36336993512154
 30
0.0
 40
202.000000000004
 50
81.89038554400607
 51
97.25224686505936
  0
ARC
  5
CB
  8
HILFSLINIEN
  6
VOLLINIE
 62
    18
 10
336.0317921773689
 20
413.3633699351241
 30
0.0
 40
201.9999999999985
 50
262.7477531349405
 51
278.1096144559941
  0
ARC
  5
CC
  8
HILFSLINIEN
  6
VOLLINIE
 62
    18
 10
294.5317921773687
 20
199.3633699351257
 30
0.0
 40
1.999999999999864
 50
89.99999999999675
 51
180.0
  0
ARC
  5
CD
  8
HILFSLINIEN
  6
VOLLINIE
 62
    18
 10
304.4723245012489
 20
249.3633699351404
 30
0.0
 40
50.00000000001488
 50
270.0000000000009
 51
277.2522468650584
  0
LINE
  5
CE
  8
HILFSLINIEN
  6
VOLLINIE
 62
    18
 10
292.0317921773687
 20
199.3633699351256
 30
0.0
 11
304.4723245012497
 21
199.3633699351255
 31
0.0
  0
ARC
  5
CF
  8
HILFSLINIEN
  6
VOLLINIE
 62
    18
 10
304.4723245012513
 20
165.363369935155
 30
0.0
 40
49.99999999997065
 50
82.74775313493838
 51
90.00000000000207
  0
ARC
  5
D0
  8
HILFSLINIEN
  6
VOLLINIE
 62
    18
 10
304.4723245012492
 20
165.3633699351193
 30
0.0
 40
48.00000000000631
 50
82.74775313494116
 51
90.0
  0
ARC
  5
D1
  8
HILFSLINIEN
  6
VOLLINIE
 62
    18
 10
304.4723245012495
 20
249.3633699351284
 30
0.0
 40
48.00000000000285
 50
270.0
 51
277.2522468650594
  0
LINE
  5
D2
  8
HILFSLINIEN
  6
VOLLINIE
 62
    18
 10
320.6570899492613
 20
205.8633699351256
 30
0.0
 11
292.0317921773687
 21
205.8633699351255
 31
0.0
  0
ARC
  5
D3
  8
HILFSLINIEN
  6
VOLLINIE
 62
    18
 10
320.6570899492613
 20
210.8633699351257
 30
0.0
 40
2.000000000000058
 50
270.0
 51
0.0
  0
ARC
  5
D4
  8
HILFSLINIEN
  6
VOLLINIE
 62
    18
 10
320.6570899492613
 20
203.8633699351256
 30
0.0
 40
1.999999999999961
 50
0.0
 51
90.00000000000163
  0
LINE
  5
D5
  8
HILFSLINIEN
  6
VOLLINIE
 62
    18
 10
304.5317921773688
 20
202.5444846299404
 30
0.0
 11
304.5317921773688
 21
212.4005697988971
 31
0.0
  0
LINE
  5
D6
  8
HILFSLINIEN
  6
VOLLINIE
 62
    18
 10
294.5317921773688
 20
201.3633699351256
 30
0.0
 11
304.4723245012497
 21
201.3633699351255
 31
0.0
  0
LINE
  5
D7
  8
HILFSLINIEN
  6
VOLLINIE
 62
    18
 10
302.0317921773688
 20
208.8633699351255
 30
0.0
 11
302.0317921773688
 21
205.8633699351256
 31
0.0
  0
LINE
  5
D8
  8
HILFSLINIEN
  6
VOLLINIE
 62
    18
 10
307.0317921773687
 20
208.8633699351255
 30
0.0
 11
307.0317921773687
 21
205.8633699351256
 31
0.0
  0
LINE
  5
D9
  8
HILFSLINIEN
  6
VOLLINIE
 62
    18
 10
290.0317921773687
 20
205.3633699351255
 30
0.0
 11
290.0317921773687
 21
201.3633699351256
 31
0.0
  0
LINE
  5
DA
  8
HILFSLINIEN
  6
VOLLINIE
 62
    18
 10
294.5317921773688
 20
213.3633699351257
 30
0.0
 11
304.4723245012495
 21
213.3633699351256
 31
0.0
  0
ARC
  5
DB
  8
HILFSLINIEN
  6
VOLLINIE
 62
    18
 10
294.5317921773689
 20
215.3633699351257
 30
0.0
 40
2.000000000000059
 50
180.0
 51
269.9999999999984
  0
LINE
  5
DC
  8
HILFSLINIEN
  6
VOLLINIE
 62
    18
 10
263.0317921773687
 20
207.3633699351255
 30
0.0
 11
288.0317921773687
 21
207.3633699351255
 31
0.0
  0
LINE
  5
DD
  8
HILFSLINIEN
  6
VOLLINIE
 62
    18
 10
274.7817921773688
 20
215.3633699351257
 30
0.0
 11
274.7817921773687
 21
207.3633699351255
 31
0.0
  0
LINE
  5
DE
  8
HILFSLINIEN
  6
VOLLINIE
 62
    18
 10
275.7817921773687
 20
215.3633699351257
 30
0.0
 11
275.7817921773687
 21
207.3633699351255
 31
0.0
  0
ARC
  5
DF
  8
HILFSLINIEN
  6
VOLLINIE
 62
    18
 10
287.4571239307959
 20
210.8633699351256
 30
0.0
 40
1.999999999999961
 50
180.0
 51
270.0000000000017
  0
LINE
  5
E0
  8
HILFSLINIEN
  6
VOLLINIE
 62
    18
 10
261.0317921773687
 20
213.3633699351257
 30
0.0
 11
261.0317921773687
 21
209.3633699351255
 31
0.0
  0
LINE
  5
E1
  8
HILFSLINIEN
  6
VOLLINIE
 62
    18
 10
265.2817921773687
 20
215.3633699351257
 30
0.0
 11
265.2817921773688
 21
207.3633699351255
 31
0.0
  0
LINE
  5
E2
  8
HILFSLINIEN
  6
VOLLINIE
 62
    18
 10
266.2817921773687
 20
215.3633699351257
 30
0.0
 11
266.2817921773687
 21
207.3633699351255
 31
0.0
  0
ARC
  5
E3
  8
HILFSLINIEN
  6
VOLLINIE
 62
    18
 10
263.0317921773686
 20
209.3633699351255
 30
0.0
 40
1.999999999999961
 50
180.0
 51
270.0000000000017
  0
ARC
  5
E4
  8
HILFSLINIEN
  6
VOLLINIE
 62
    18
 10
263.0317921773687
 20
213.3633699351257
 30
0.0
 40
2.000000000000058
 50
90.00000000000163
 51
180.0
  0
LINE
  5
E5
  8
HILFSLINIEN
  6
VOLLINIE
 62
    18
 10
233.9317921773688
 20
201.3633699351256
 30
0.0
 11
233.9317921773688
 21
213.3633699351257
 31
0.0
  0
LINE
  5
E6
  8
HILFSLINIEN
  6
VOLLINIE
 62
    18
 10
266.2817921773687
 20
215.3633699351257
 30
0.0
 11
235.9317921773688
 21
215.3633699351257
 31
0.0
  0
LINE
  5
E7
  8
HILFSLINIEN
  6
VOLLINIE
 62
    18
 10
292.0317921773687
 20
199.3633699351256
 30
0.0
 11
235.9317921773688
 21
199.3633699351256
 31
0.0
  0
LINE
  5
E8
  8
HILFSLINIEN
  6
VOLLINIE
 62
    18
 10
233.9317921773688
 20
204.3633699351257
 30
0.0
 11
256.9317921773687
 21
204.3633699351256
 31
0.0
  0
LINE
  5
E9
  8
HILFSLINIEN
  6
VOLLINIE
 62
    18
 10
233.9317921773688
 20
210.3633699351256
 30
0.0
 11
256.9317921773687
 21
210.3633699351256
 31
0.0
  0
LINE
  5
EA
  8
HILFSLINIEN
  6
VOLLINIE
 62
    18
 10
281.0317921773687
 20
199.3633699351256
 30
0.0
 11
281.0317921773687
 21
207.3633699351255
 31
0.0
  0
LINE
  5
EB
  8
HILFSLINIEN
  6
VOLLINIE
 62
    18
 10
258.9317921773687
 20
199.3633699351256
 30
0.0
 11
258.9317921773687
 21
202.3633699351256
 31
0.0
  0
LINE
  5
EC
  8
HILFSLINIEN
  6
VOLLINIE
 62
    18
 10
258.9317921773687
 20
212.3633699351256
 30
0.0
 11
258.9317921773687
 21
215.3633699351257
 31
0.0
  0
ARC
  5
ED
  8
HILFSLINIEN
  6
VOLLINIE
 62
    18
 10
235.9317921773688
 20
201.3633699351256
 30
0.0
 40
1.999999999999961
 50
180.0
 51
270.0
  0
ARC
  5
EE
  8
HILFSLINIEN
  6
VOLLINIE
 62
    18
 10
235.9317921773688
 20
213.3633699351257
 30
0.0
 40
1.999999999999961
 50
90.0
 51
180.0
  0
ARC
  5
EF
  8
HILFSLINIEN
  6
VOLLINIE
 62
    18
 10
256.9317921773688
 20
202.3633699351256
 30
0.0
 40
1.999999999999961
 50
0.0
 51
90.00000000000163
  0
ARC
  5
F0
  8
HILFSLINIEN
  6
VOLLINIE
 62
    18
 10
256.9317921773687
 20
212.3633699351257
 30
0.0
 40
2.000000000000058
 50
270.0000000000017
 51
0.0
  0
LINE
  5
F1
  8
HILFSLINIEN
  6
VOLLINIE
 62
    18
 10
240.6817921773688
 20
199.3633699351255
 30
0.0
 11
240.6817921773688
 21
215.3633699351257
 31
0.0
  0
LINE
  5
F2
  8
HILFSLINIEN
  6
VOLLINIE
 62
    18
 10
250.1817921773688
 20
199.3633699351256
 30
0.0
 11
250.1817921773687
 21
215.3633699351257
 31
0.0
  0
CIRCLE
  5
F3
  8
HILFSLINIEN
  6
VOLLINIE
 62
    18
 10
290.8317921773686
 20
310.3015484742061
 30
0.0
 40
2.400000000000034
  0
ARC
  5
F4
  8
HILFSLINIEN
  6
VOLLINIE
 62
    18
 10
270.0317921773686
 20
310.301548474206
 30
0.0
 40
7.5
 50
90.0
 51
270.0
  0
ARC
  5
F5
  8
HILFSLINIEN
  6
VOLLINIE
 62
    18
 10
295.0317921773686
 20
310.301548474206
 30
0.0
 40
7.5
 50
270.0
 51
90.0
  0
LINE
  5
F6
  8
HILFSLINIEN
  6
VOLLINIE
 62
    18
 10
270.0317921773686
 20
317.801548474206
 30
0.0
 11
295.0317921773686
 21
317.801548474206
 31
0.0
  0
LINE
  5
F7
  8
HILFSLINIEN
  6
VOLLINIE
 62
    18
 10
270.0317921773686
 20
302.801548474206
 30
0.0
 11
295.0317921773686
 21
302.8015484742062
 31
0.0
  0
LINE
  5
F8
  8
HILFSLINIEN
  6
VOLLINIE
 62
    18
 10
262.5317921773687
 20
217.3633699351257
 30
0.0
 11
302.5317921773687
 21
217.3633699351257
 31
0.0
  0
LINE
  5
F9
  8
HILFSLINIEN
  6
VOLLINIE
 62
    18
 10
262.5317921773687
 20
215.3633699351257
 30
0.0
 11
302.5317921773687
 21
215.3633699351257
 31
0.0
  0
LINE
  5
FA
  8
HILFSLINIEN
  6
VOLLINIE
 62
    18
 10
302.5317921773688
 20
215.3633699351257
 30
0.0
 11
302.5317921773687
 21
217.3633699351257
 31
0.0
  0
LINE
  5
FB
  8
HILFSLINIEN
  6
VOLLINIE
 62
    18
 10
293.2317921773687
 20
215.3633699351257
 30
0.0
 11
293.2317921773687
 21
217.3633699351257
 31
0.0
  0
LINE
  5
FC
  8
HILFSLINIEN
  6
VOLLINIE
 62
    18
 10
288.4317921773688
 20
215.3633699351257
 30
0.0
 11
288.4317921773688
 21
217.3633699351257
 31
0.0
  0
LINE
  5
FD
  8
HILFSLINIEN
  6
VOLLINIE
 62
    18
 10
274.8317921773687
 20
215.3633699351256
 30
0.0
 11
274.8317921773687
 21
217.3633699351258
 31
0.0
  0
LINE
  5
FE
  8
HILFSLINIEN
  6
VOLLINIE
 62
    18
 10
265.2317921773687
 20
215.3633699351256
 30
0.0
 11
265.2317921773687
 21
217.3633699351258
 31
0.0
  0
LINE
  5
FF
  8
HILFSLINIEN
  6
VOLLINIE
 62
    18
 10
262.5317921773687
 20
215.3633699351257
 30
0.0
 11
262.5317921773688
 21
217.3633699351257
 31
0.0
  0
LINE
  5
100
  8
HILFSLINIEN
  6
VOLLINIE
 62
    18
 10
262.5317921773687
 20
197.3633699351253
 30
0.0
 11
302.5317921773687
 21
197.3633699351254
 31
0.0
  0
LINE
  5
101
  8
HILFSLINIEN
  6
VOLLINIE
 62
    18
 10
262.5317921773687
 20
199.3633699351254
 30
0.0
 11
302.5317921773687
 21
199.3633699351254
 31
0.0
  0
LINE
  5
102
  8
HILFSLINIEN
  6
VOLLINIE
 62
    18
 10
302.5317921773688
 20
199.3633699351254
 30
0.0
 11
302.5317921773687
 21
197.3633699351254
 31
0.0
  0
LINE
  5
103
  8
HILFSLINIEN
  6
VOLLINIE
 62
    18
 10
293.2317921773687
 20
199.3633699351253
 30
0.0
 11
293.2317921773687
 21
197.3633699351253
 31
0.0
  0
LINE
  5
104
  8
HILFSLINIEN
  6
VOLLINIE
 62
    18
 10
288.4317921773688
 20
199.3633699351254
 30
0.0
 11
288.4317921773688
 21
197.3633699351253
 31
0.0
  0
LINE
  5
105
  8
HILFSLINIEN
  6
VOLLINIE
 62
    18
 10
274.8317921773687
 20
199.3633699351255
 30
0.0
 11
274.8317921773687
 21
197.3633699351253
 31
0.0
  0
LINE
  5
106
  8
HILFSLINIEN
  6
VOLLINIE
 62
    18
 10
265.2317921773687
 20
199.3633699351255
 30
0.0
 11
265.2317921773687
 21
197.3633699351253
 31
0.0
  0
LINE
  5
107
  8
HILFSLINIEN
  6
VOLLINIE
 62
    18
 10
262.5317921773687
 20
199.3633699351253
 30
0.0
 11
262.5317921773688
 21
197.3633699351254
 31
0.0
  0
ARC
  5
108
  8
HILFSLINIEN
  6
VOLLINIE
 62
    18
 10
270.0317921773686
 20
310.301548474206
 30
0.0
 40
9.000000000000012
 50
162.7379820062664
 51
197.2620179937333
  0
ARC
  5
109
  8
HILFSLINIEN
  6
VOLLINIE
 62
    18
 10
271.0317921773687
 20
332.601548474206
 30
0.0
 40
9.999999999999995
 50
40.36600461913901
 51
47.60586455411362
  0
LINE
  5
10A
  8
HILFSLINIEN
  6
VOLLINIE
 62
    18
 10
263.0054727228749
 20
322.601548474206
 30
0.0
 11
260.9317921773686
 21
322.601548474206
 31
0.0
  0
LINE
  5
10B
  8
HILFSLINIEN
  6
VOLLINIE
 62
    18
 10
259.3638483649337
 20
263.8089266966896
 30
0.0
 11
277.7740601661726
 21
280.6163049191734
 31
0.0
  0
ARC
  5
10C
  8
HILFSLINIEN
  6
VOLLINIE
 62
    18
 10
288.8621751709512
 20
253.3161417113878
 30
0.0
 40
29.99999999999987
 50
79.5474248355568
 51
109.899531322877
  0
ARC
  5
10D
  8
HILFSLINIEN
  6
VOLLINIE
 62
    18
 10
228.0136523742679
 20
297.2449054337082
 30
0.0
 40
34.99999999999878
 50
1.238738010079668
 51
17.26201799373368
  0
ARC
  5
10E
  8
HILFSLINIEN
  6
VOLLINIE
 62
    18
 10
326.0308887095045
 20
277.3000153645986
 30
0.0
 40
55.99999999999987
 50
93.45395640254866
 51
133.6772292312891
  0
ARC
  5
10F
  8
HILFSLINIEN
  6
VOLLINIE
 62
    18
 10
270.0317921773686
 20
310.3015484742061
 30
0.0
 40
8.999999999999979
 50
162.7379820062671
 51
303.5573097619205
  0
ARC
  5
110
  8
HILFSLINIEN
  6
VOLLINIE
 62
    18
 10
326.0308887095043
 20
343.3030815838133
 30
0.0
 40
55.99999999999968
 50
226.3227707687107
 51
266.5460435974514
  0
LINE
  5
111
  8
HILFSLINIEN
  6
VOLLINIE
 62
    18
 10
299.2631711564007
 20
316.4939173210856
 30
0.0
 11
305.3162855896364
 21
315.9110686936785
 31
0.0
  0
LINE
  5
112
  8
HILFSLINIEN
  6
VOLLINIE
 62
    18
 10
299.2631711564009
 20
304.1091796273265
 30
0.0
 11
305.3162855896364
 21
304.6920282547335
 31
0.0
  0
LINE
  5
113
  8
HILFSLINIEN
  6
VOLLINIE
 62
    18
 10
290.0317921773687
 20
317.801548474206
 30
0.0
 11
290.0317921773687
 21
337.3097639733603
 31
0.0
  0
LINE
  5
114
  8
HILFSLINIEN
  6
VOLLINIE
 62
    18
 10
290.0317921773687
 20
302.8015484742061
 30
0.0
 11
290.0317921773687
 21
283.2933329750517
 31
0.0
  0
LINE
  5
115
  8
HILFSLINIEN
  6
VOLLINIE
 62
    18
 10
380.8317921773688
 20
312.7015484742061
 30
0.0
 11
302.1374237467648
 21
312.7015484742061
 31
0.0
  0
LINE
  5
116
  8
HILFSLINIEN
  6
VOLLINIE
 62
    18
 10
380.8317921773688
 20
307.9015484742061
 30
0.0
 11
302.1374237467649
 21
307.9015484742061
 31
0.0
  0
LINE
  5
117
  8
HILFSLINIEN
  6
VOLLINIE
 62
     6
 10
245.4317921773687
 20
302.801548474206
 30
0.0
 11
245.4317921773687
 21
317.801548474206
 31
0.0
  0
LINE
  5
118
  8
HILFSLINIEN
  6
VOLLINIE
 62
     6
 10
237.9317921773686
 20
310.301548474206
 30
0.0
 11
252.9317921773686
 21
310.301548474206
 31
0.0
  0
LINE
  5
119
  8
HILFSLINIEN
  6
VOLLINIE
 62
     6
 10
270.0317921773687
 20
302.8015484742061
 30
0.0
 11
270.0317921773687
 21
317.801548474206
 31
0.0
  0
LINE
  5
11A
  8
HILFSLINIEN
  6
VOLLINIE
 62
     6
 10
262.5317921773686
 20
310.3015484742061
 30
0.0
 11
277.5317921773686
 21
310.3015484742061
 31
0.0
  0
LINE
  5
11B
  8
HILFSLINIEN
  6
VOLLINIE
 62
     6
 10
271.0317921773687
 20
325.1015484742061
 30
0.0
 11
271.0317921773687
 21
340.101548474206
 31
0.0
  0
LINE
  5
11C
  8
HILFSLINIEN
  6
VOLLINIE
 62
     6
 10
263.5317921773686
 20
332.6015484742061
 30
0.0
 11
278.5317921773687
 21
332.6015484742061
 31
0.0
  0
LINE
  5
11D
  8
HILFSLINIEN
  6
VOLLINIE
 62
     6
 10
290.8317921773686
 20
302.8015484742061
 30
0.0
 11
290.8317921773686
 21
317.8015484742061
 31
0.0
  0
LINE
  5
11E
  8
HILFSLINIEN
  6
VOLLINIE
 62
     6
 10
283.3317921773686
 20
310.3015484742061
 30
0.0
 11
298.3317921773686
 21
310.3015484742061
 31
0.0
  0
LINE
  5
11F
  8
HILFSLINIEN
  6
VOLLINIE
 62
     6
 10
271.0317921773687
 20
280.501548474206
 30
0.0
 11
271.0317921773687
 21
295.5015484742059
 31
0.0
  0
LINE
  5
120
  8
HILFSLINIEN
  6
VOLLINIE
 62
     6
 10
263.5317921773686
 20
288.001548474206
 30
0.0
 11
278.5317921773687
 21
288.001548474206
 31
0.0
  0
LINE
  5
121
  8
LAYER1
  6
VOLLINIE
 62
    18
 10
240.6817921773688
 20
207.3633699351257
 30
0.0
 11
295.7676876742978
 21
207.3633699351257
 31
0.0
  0
LINE
  5
122
  8
LAYER1
  6
VOLLINIE
 62
     6
 10
270.0317921773687
 20
195.5755751979237
 30
0.0
 11
270.0317921773687
 21
219.3798206165625
 31
0.0
  0
LINE
  5
123
  8
LAYER1
  6
VOLLINIE
 62
     6
 10
271.0317921773687
 20
195.5755751979237
 30
0.0
 11
271.0317921773687
 21
219.3798206165625
 31
0.0
  0
LINE
  5
124
  8
LAYER1
  6
VOLLINIE
 62
     6
 10
245.4317921773687
 20
195.4612472258062
 30
0.0
 11
245.4317921773687
 21
219.2654926444451
 31
0.0
  0
VIEWPORT
  5
63
 67
     1
  8
0
 10
0.0
 20
0.0
 30
0.0
 40
1.0
 41
1.0
 68
     1
 69
     1
1001
ACAD
1000
MVIEW
1002
{
1070
    16
1010
0.0
1020
0.0
1030
0.0
1020
0.0
1030
0.0
1010
0.0
1020
0.0
1030
1.0
1020
0.0
1030
1.0
1040
0.0
1040
1.0
1040
0.0
1040
0.0
1040
50.0
1040
0.0
1040
0.0
1070
     0
1070
   100
1070
     0
1070
     3
1070
     0
1070
     0
1070
     0
1070
     0
1040
0.0
1040
0.0
1040
0.0
1040
0.5
1040
0.5
1040
0.0
1040
0.0
1070
     0
1002
{
1002
}
1002
}
  0
ENDSEC
  0
EOF
