  0
SECTION
  2
HEADER
  9
$ACADVER
  1
AC1009
  9
$DWGCODEPAGE
  3
ansi_1252
  9
$INSBASE
 10
0.0
 20
0.0
 30
0.0
  9
$EXTMIN
 10
-1.299129219760093
 20
-1.299129219760093
 30
-1.299129219760093
  9
$EXTMAX
 10
887.0877131247536
 20
681.8876419067383
 30
1.299129219760093
  9
$LIMMIN
 10
0.0
 20
0.0
  9
$LIMMAX
 10
12.0
 20
9.0
  9
$ORTHOMODE
 70
     0
  9
$REGENMODE
 70
     1
  9
$FILLMODE
 70
     1
  9
$QTEXTMODE
 70
     0
  9
$MIRRTEXT
 70
     1
  9
$DRAGMODE
 70
     2
  9
$LTSCALE
 40
1.0
  9
$OSMODE
 70
    37
  9
$ATTMODE
 70
     1
  9
$TEXTSIZE
 40
0.2
  9
$TRACEWID
 40
0.05
  9
$TEXTSTYLE
  7
STANDARD
  9
$CLAYER
  8
0
  9
$CELTYPE
  6
BYLAYER
  9
$CECOLOR
 62
   256
  9
$DIMSCALE
 40
1.0
  9
$DIMASZ
 40
0.18
  9
$DIMEXO
 40
0.0625
  9
$DIMDLI
 40
0.38
  9
$DIMRND
 40
0.0
  9
$DIMDLE
 40
0.0
  9
$DIMEXE
 40
0.18
  9
$DIMTP
 40
0.0
  9
$DIMTM
 40
0.0
  9
$DIMTXT
 40
0.18
  9
$DIMCEN
 40
0.09
  9
$DIMTSZ
 40
0.0
  9
$DIMTOL
 70
     0
  9
$DIMLIM
 70
     0
  9
$DIMTIH
 70
     1
  9
$DIMTOH
 70
     1
  9
$DIMSE1
 70
     0
  9
$DIMSE2
 70
     0
  9
$DIMTAD
 70
     0
  9
$DIMZIN
 70
     0
  9
$DIMBLK
  1

  9
$DIMASO
 70
     1
  9
$DIMSHO
 70
     1
  9
$DIMPOST
  1

  9
$DIMAPOST
  1

  9
$DIMALT
 70
     0
  9
$DIMALTD
 70
     2
  9
$DIMALTF
 40
25.4
  9
$DIMLFAC
 40
1.0
  9
$DIMTOFL
 70
     0
  9
$DIMTVP
 40
0.0
  9
$DIMTIX
 70
     0
  9
$DIMSOXD
 70
     0
  9
$DIMSAH
 70
     0
  9
$DIMBLK1
  1

  9
$DIMBLK2
  1

  9
$DIMSTYLE
  2
STANDARD
  9
$DIMCLRD
 70
     0
  9
$DIMCLRE
 70
     0
  9
$DIMCLRT
 70
     0
  9
$DIMTFAC
 40
1.0
  9
$DIMGAP
 40
0.09
  9
$LUNITS
 70
     2
  9
$LUPREC
 70
     4
  9
$SKETCHINC
 40
0.1
  9
$FILLETRAD
 40
0.5
  9
$AUNITS
 70
     0
  9
$AUPREC
 70
     0
  9
$MENU
  1
.
  9
$ELEVATION
 40
0.0
  9
$PELEVATION
 40
0.0
  9
$THICKNESS
 40
0.0
  9
$LIMCHECK
 70
     0
  9
$CHAMFERA
 40
0.5
  9
$CHAMFERB
 40
0.5
  9
$SKPOLY
 70
     0
  9
$TDCREATE
 40
2305814.611400463
  9
$TDUPDATE
 40
2305814.611400474
  9
$TDINDWG
 40
0.0000000116
  9
$TDUSRTIMER
 40
0.0000000116
  9
$USRTIMER
 70
     1
  9
$ANGBASE
 50
0.0
  9
$ANGDIR
 70
     0
  9
$PDMODE
 70
     0
  9
$PDSIZE
 40
0.0
  9
$PLINEWID
 40
0.0
  9
$COORDS
 70
     1
  9
$SPLFRAME
 70
     0
  9
$SPLINETYPE
 70
     6
  9
$SPLINESEGS
 70
     8
  9
$ATTDIA
 70
     0
  9
$ATTREQ
 70
     1
  9
$HANDLING
 70
     1
  9
$HANDSEED
  5
153
  9
$SURFTAB1
 70
     6
  9
$SURFTAB2
 70
     6
  9
$SURFTYPE
 70
     6
  9
$SURFU
 70
     6
  9
$SURFV
 70
     6
  9
$UCSNAME
  2

  9
$UCSORG
 10
0.0
 20
0.0
 30
0.0
  9
$UCSXDIR
 10
1.0
 20
0.0
 30
0.0
  9
$UCSYDIR
 10
0.0
 20
1.0
 30
0.0
  9
$PUCSNAME
  2

  9
$PUCSORG
 10
0.0
 20
0.0
 30
0.0
  9
$PUCSXDIR
 10
1.0
 20
0.0
 30
0.0
  9
$PUCSYDIR
 10
0.0
 20
1.0
 30
0.0
  9
$USERI1
 70
     0
  9
$USERI2
 70
     0
  9
$USERI3
 70
     0
  9
$USERI4
 70
     0
  9
$USERI5
 70
     0
  9
$USERR1
 40
0.0
  9
$USERR2
 40
0.0
  9
$USERR3
 40
0.0
  9
$USERR4
 40
0.0
  9
$USERR5
 40
0.0
  9
$WORLDVIEW
 70
     1
  9
$SHADEDGE
 70
     3
  9
$SHADEDIF
 70
    70
  9
$TILEMODE
 70
     1
  9
$MAXACTVP
 70
    64
  9
$PLIMCHECK
 70
     0
  9
$PEXTMIN
 10
1.000000000000000E+20
 20
1.000000000000000E+20
 30
1.000000000000000E+20
  9
$PEXTMAX
 10
-1.000000000000000E+20
 20
-1.000000000000000E+20
 30
-1.000000000000000E+20
  9
$PLIMMIN
 10
0.0
 20
0.0
  9
$PLIMMAX
 10
12.0
 20
9.0
  9
$UNITMODE
 70
     0
  9
$VISRETAIN
 70
     1
  9
$PLINEGEN
 70
     0
  9
$PSLTSCALE
 70
     1
  0
ENDSEC
  0
SECTION
  2
TABLES
  0
TABLE
  2
VPORT
 70
     1
  0
VPORT
  2
*ACTIVE
 70
     0
 10
0.0
 20
0.0
 11
1.0
 21
1.0
 12
0.0
 22
0.0
 13
0.0
 23
0.0
 14
0.5
 24
0.5
 15
0.5
 25
0.5
 16
0.0
 26
0.0
 36
1.0
 17
801.6526380368242
 27
553.891962424307
 37
0.0
 40
231.376031828103
 41
0.7532653741285524
 42
50.0
 43
0.0
 44
0.0
 50
0.0
 51
0.0
 71
     0
 72
   100
 73
     1
 74
     3
 75
     0
 76
     0
 77
     0
 78
     0
  0
ENDTAB
  0
TABLE
  2
LTYPE
 70
    13
  0
LTYPE
  2
CONTINUOUS
 70
     0
  3
Solid line
 72
    65
 73
     0
 40
0.0
  0
LTYPE
  2
VOLLINIE
 70
     0
  3
____________________
 72
    65
 73
     0
 40
0.0
  0
LTYPE
  2
ZWEISTRICHPUNKT
 70
     0
  3
__ __ . __ __ . __ 
 72
    65
 73
     6
 40
22.225
 49
0.25
 49
-0.125
 49
0.25
 49
-0.125
 49
0.0
 49
-0.125
  0
LTYPE
  2
STRICHPUNKT_LANG
 70
     0
  3
___ _ ___ _ ___ _ _
 72
    65
 73
     4
 40
28.575
 49
0.75
 49
-0.125
 49
0.125
 49
-0.125
  0
LTYPE
  2
STRICHPUNKT
 70
     0
  3
_._._._._._._._._._
 72
    65
 73
     4
 40
12.7
 49
0.25
 49
-0.125
 49
0.0
 49
-0.125
  0
LTYPE
  2
STRICHLINIE_LANG
 70
     0
  3
_ _ _ _ _ _ _ _ _ _
 72
    65
 73
     2
 40
9.524999999999999
 49
0.25
 49
-0.125
  0
LTYPE
  2
STRICHZWEIPKT__KURZ
 70
     0
  3
__..__..__..__..__.
 72
    65
 73
     6
 40
15.875
 49
0.25
 49
-0.125
 49
0.0
 49
-0.125
 49
0.0
 49
-0.125
  0
LTYPE
  2
GEPUNKTET
 70
     0
  3
...................
 72
    65
 73
     2
 40
3.175
 49
0.0
 49
-0.125
  0
LTYPE
  2
STRICHLINIE
 70
     0
  3
__ __ __ __ __ __ _
 72
    65
 73
     2
 40
4.762499999999999
 49
0.125
 49
-0.0625
  0
LTYPE
  2
STRICHZWEIPUNKT
 70
     0
  3
___ _ _ ___ _ _ ___
 72
    65
 73
     6
 40
31.75
 49
0.625
 49
-0.125
 49
0.125
 49
-0.125
 49
0.125
 49
-0.125
  0
LTYPE
  2
STRICHZWEIPKT__LANG
 70
     0
  3
________ _ _ ______
 72
    65
 73
     6
 40
37.2745
 49
1.0
 49
-0.0725
 49
0.125
 49
-0.0725
 49
0.125
 49
-0.0725
  0
LTYPE
  2
STRICHLINIE_KURZ
 70
     0
  3
_ _ _ _ _ _ _ _ _ _
 72
    65
 73
     2
 40
3.682999999999999
 49
0.0725
 49
-0.0725
  0
LTYPE
  2
HIDDEN
 70
     0
  3
-- -- -- -- -- -- -
 72
    65
 73
     2
 40
76.19999999999999
 49
2.0
 49
-1.0
  0
ENDTAB
  0
TABLE
  2
LAYER
 70
     7
  0
LAYER
  2
0
 70
     0
 62
     7
  6
CONTINUOUS
  0
LAYER
  2
HILFSLINIEN
 70
     0
 62
     7
  6
CONTINUOUS
  0
LAYER
  2
BEMESSUNG
 70
     0
 62
     7
  6
CONTINUOUS
  0
LAYER
  2
LAYER1
 70
     0
 62
     7
  6
CONTINUOUS
  0
LAYER
  2
DWG_50360
 70
     0
 62
     7
  6
CONTINUOUS
  0
LAYER
  2
DWG_50360_MODEL
 70
     0
 62
     7
  6
CONTINUOUS
  0
LAYER
  2
DWG_50360_MODEL_1L
 70
     0
 62
     4
  6
CONTINUOUS
  0
ENDTAB
  0
TABLE
  2
STYLE
 70
     1
  0
STYLE
  2
STANDARD
 70
     0
 40
0.0
 41
1.0
 50
0.0
 71
     0
 42
0.2
  3
txt
  4

  0
ENDTAB
  0
TABLE
  2
VIEW
 70
     0
  0
ENDTAB
  0
TABLE
  2
UCS
 70
     0
  0
ENDTAB
  0
TABLE
  2
APPID
 70
     2
  0
APPID
  2
ACAD
 70
     0
  0
APPID
  2
PUNCH__SOFTWARE_VIACAD
 70
     0
  0
ENDTAB
  0
TABLE
  2
DIMSTYLE
 70
     1
  0
DIMSTYLE
  2
STANDARD
 70
     0
  3

  4

  5

  6

  7

 40
1.0
 41
0.18
 42
0.0625
 43
0.38
 44
0.18
 45
0.0
 46
0.0
 47
0.0
 48
0.0
140
0.18
141
0.09
142
0.0
143
25.4
144
1.0
145
0.0
146
1.0
147
0.09
 71
     0
 72
     0
 73
     1
 74
     1
 75
     0
 76
     0
 77
     0
 78
     0
170
     0
171
     2
172
     0
173
     0
174
     0
175
     0
176
     0
177
     0
178
     0
  0
ENDTAB
  0
ENDSEC
  0
SECTION
  2
BLOCKS
  0
BLOCK
  8
0
  2
$MODEL_SPACE
 70
     0
 10
0.0
 20
0.0
 30
0.0
  3
$MODEL_SPACE
  1

  0
ENDBLK
  5
21
  8
0
  0
BLOCK
 67
     1
  8
0
  2
$PAPER_SPACE
 70
     0
 10
0.0
 20
0.0
 30
0.0
  3
$PAPER_SPACE
  1

  0
ENDBLK
  5
1D
 67
     1
  8
0
  0
ENDSEC
  0
SECTION
  2
ENTITIES
  0
ARC
  5
71
  8
HILFSLINIEN
  6
VOLLINIE
 62
    18
 10
750.645588162258
 20
552.9389842707643
 30
0.0
 40
43.99999999999753
 50
71.4304455388445
 51
108.4864724158953
  0
ARC
  5
72
  8
HILFSLINIEN
  6
VOLLINIE
 62
    18
 10
756.7709709668262
 20
540.4389842707639
 30
0.0
 40
61.9999999999979
 50
68.57518439695194
 51
109.5316875748792
  0
ARC
  5
73
  8
HILFSLINIEN
  6
VOLLINIE
 62
    18
 10
750.645588162258
 20
552.9389842707584
 30
0.0
 40
41.00000000000321
 50
71.43044553884657
 51
116.1376754122316
  0
LINE
  5
74
  8
HILFSLINIEN
  6
VOLLINIE
 62
    18
 10
772.9511550431916
 20
589.3158030946562
 30
0.0
 11
779.7796233586606
 21
596.5366535446703
 31
0.0
  0
ARC
  5
75
  8
HILFSLINIEN
  6
VOLLINIE
 62
    18
 10
760.5177131247518
 20
582.3250549288941
 30
0.0
 40
13.00000000000256
 50
33.25848169042451
 51
71.43044553883962
  0
LINE
  5
76
  8
HILFSLINIEN
  6
VOLLINIE
 62
    18
 10
773.1918337466486
 20
585.2040724999016
 30
0.0
 11
783.9449816150103
 21
596.5751251338327
 31
0.0
  0
CIRCLE
  5
77
  8
HILFSLINIEN
  6
VOLLINIE
 62
    18
 10
777.5177131247538
 20
573.7689842707613
 30
0.0
 40
2.500000000000114
  0
CIRCLE
  5
78
  8
HILFSLINIEN
  6
VOLLINIE
 62
    18
 10
790.9177131247536
 20
587.9389842707615
 30
0.0
 40
2.500000000000227
  0
ARC
  5
79
  8
HILFSLINIEN
  6
VOLLINIE
 62
    18
 10
760.5177131247522
 20
582.3250549288949
 30
0.0
 40
10.00000000000172
 50
0.0
 51
71.4304455388363
  0
LINE
  5
7A
  8
HILFSLINIEN
  6
VOLLINIE
 62
    18
 10
770.5177131247539
 20
573.7689842707613
 30
0.0
 11
770.5177131247539
 21
582.3250549288961
 31
0.0
  0
ARC
  5
7B
  8
HILFSLINIEN
  6
VOLLINIE
 62
    18
 10
771.7386893766744
 20
586.578252779199
 30
0.0
 40
1.999999999999437
 50
200.7587077168034
 51
316.5997926958398
  0
ARC
  5
7C
  8
HILFSLINIEN
  6
VOLLINIE
 62
    18
 10
772.2245828582045
 20
590.0028932343051
 30
0.0
 40
0.9999999999998804
 50
213.2584816904315
 51
316.5997926958327
  0
ARC
  5
7D
  8
HILFSLINIEN
  6
VOLLINIE
 62
    18
 10
779.0530511736737
 20
597.2237436843193
 30
0.0
 40
0.9999999999999997
 50
316.5997926958095
 51
68.57518439699426
  0
LINE
  5
7E
  8
HILFSLINIEN
  6
VOLLINIE
 62
    18
 10
732.3769545242428
 20
590.093264381055
 30
0.0
 11
732.3769545242428
 21
600.4659755729031
 31
0.0
  0
LINE
  5
7F
  8
HILFSLINIEN
  6
VOLLINIE
 62
    18
 10
719.5677131247539
 20
590.6439842707614
 30
0.0
 11
719.5677131247539
 21
599.6439842707615
 31
0.0
  0
LINE
  5
80
  8
HILFSLINIEN
  6
STRICHLINIE_LANG
 62
    18
 10
723.0677131247538
 20
589.6439842707616
 30
0.0
 11
723.0677131247538
 21
600.6439842707616
 31
0.0
  0
LINE
  5
81
  8
HILFSLINIEN
  6
STRICHLINIE_LANG
 62
    18
 10
722.067713124754
 20
589.6439842707616
 30
0.0
 11
722.0677131247534
 21
600.6439842707616
 31
0.0
  0
LINE
  5
82
  8
HILFSLINIEN
  6
STRICHLINIE_LANG
 62
    18
 10
730.0677131247537
 20
589.6439842707616
 30
0.0
 11
730.0677131247537
 21
600.6439842707616
 31
0.0
  0
LINE
  5
83
  8
HILFSLINIEN
  6
STRICHLINIE_LANG
 62
    18
 10
729.0677131247539
 20
589.6439842707616
 30
0.0
 11
729.0677131247539
 21
600.6439842707616
 31
0.0
  0
LINE
  5
84
  8
HILFSLINIEN
  6
VOLLINIE
 62
     6
 10
726.0677131247539
 20
585.2185012516605
 30
0.0
 11
726.0677131247539
 21
605.2185012516604
 31
0.0
  0
LINE
  5
85
  8
HILFSLINIEN
  6
VOLLINIE
 62
    18
 10
720.5677131247537
 20
589.6439842707616
 30
0.0
 11
732.1433457305952
 21
589.6439842707616
 31
0.0
  0
ARC
  5
86
  8
HILFSLINIEN
  6
VOLLINIE
 62
    18
 10
732.1433457305938
 20
590.6439842707714
 30
0.0
 40
1.000000000009817
 50
270.0000000000847
 51
296.1376754124349
  0
ARC
  5
87
  8
HILFSLINIEN
  6
VOLLINIE
 62
    18
 10
720.5677131247529
 20
590.6439842707606
 30
0.0
 40
0.9999999999990101
 50
180.0
 51
270.0000000000456
  0
LINE
  5
88
  8
HILFSLINIEN
  6
VOLLINIE
 62
    18
 10
720.5677131247537
 20
600.6439842707616
 30
0.0
 11
732.0738461341657
 21
600.6439842707616
 31
0.0
  0
ARC
  5
89
  8
HILFSLINIEN
  6
VOLLINIE
 62
    18
 10
736.3769545242427
 20
597.9288450580314
 30
0.0
 40
0.9999999999999172
 50
109.5316875748713
 51
180.0
  0
ARC
  5
8A
  8
HILFSLINIEN
  6
VOLLINIE
 62
    18
 10
736.3769545242435
 20
595.6169187815154
 30
0.0
 40
1.000000000000666
 50
180.0
 51
288.4864724158679
  0
LINE
  5
8B
  8
HILFSLINIEN
  6
VOLLINIE
 62
    18
 10
735.3769545242428
 20
595.6169187815144
 30
0.0
 11
735.3769545242428
 21
597.9288450580315
 31
0.0
  0
ARC
  5
8C
  8
HILFSLINIEN
  6
VOLLINIE
 62
    18
 10
732.0738461341643
 20
601.6439842707697
 30
0.0
 40
1.000000000008027
 50
270.0000000000782
 51
291.974806219319
  0
ARC
  5
8D
  8
HILFSLINIEN
  6
VOLLINIE
 62
    18
 10
720.5677131247529
 20
599.6439842707626
 30
0.0
 40
0.9999999999990101
 50
89.99999999995441
 51
180.0
  0
ARC
  5
8E
  8
HILFSLINIEN
  6
VOLLINIE
 62
    18
 10
750.6455881622578
 20
594.5989842707663
 30
0.0
 40
41.00000000000448
 50
243.8623245877786
 51
288.569554461152
  0
ARC
  5
8F
  8
HILFSLINIEN
  6
VOLLINIE
 62
    18
 10
756.7709709668255
 20
607.0989842707658
 30
0.0
 40
65.00000000000391
 50
248.0251937806095
 51
305.7115563766916
  0
ARC
  5
90
  8
HILFSLINIEN
  6
VOLLINIE
 62
    18
 10
756.7709709668261
 20
607.0989842707602
 30
0.0
 40
61.99999999999876
 50
250.4683124251212
 51
291.4248156030479
  0
ARC
  5
91
  8
HILFSLINIEN
  6
VOLLINIE
 62
    18
 10
750.645588162258
 20
594.5989842707527
 30
0.0
 40
43.99999999999129
 50
251.513527584102
 51
288.5695544611583
  0
ARC
  5
92
  8
HILFSLINIEN
  6
VOLLINIE
 62
    18
 10
782.5143813750819
 20
549.5951591489973
 30
0.0
 40
1.979186013986652
 50
304.5355800166186
 51
43.71199195843213
  0
LINE
  5
93
  8
HILFSLINIEN
  6
VOLLINIE
 62
    18
 10
773.1918337466486
 20
562.3338960416216
 30
0.0
 11
783.9449816150103
 21
550.9628434076905
 31
0.0
  0
LINE
  5
94
  8
HILFSLINIEN
  6
VOLLINIE
 62
    18
 10
772.9511550431916
 20
558.222165446867
 30
0.0
 11
779.7796233586606
 21
551.0013149968528
 31
0.0
  0
CIRCLE
  5
95
  8
HILFSLINIEN
  6
VOLLINIE
 62
    18
 10
790.9177131247536
 20
559.5989842707618
 30
0.0
 40
2.500000000000114
  0
ARC
  5
96
  8
HILFSLINIEN
  6
VOLLINIE
 62
    18
 10
779.0530511736738
 20
550.3142248572037
 30
0.0
 40
0.9999999999997394
 50
291.4248156030044
 51
43.40020730418551
  0
LINE
  5
97
  8
HILFSLINIEN
  6
VOLLINIE
 62
    18
 10
770.5177131247539
 20
573.7689842707613
 30
0.0
 11
770.5177131247539
 21
565.2129136126271
 31
0.0
  0
ARC
  5
98
  8
HILFSLINIEN
  6
VOLLINIE
 62
    18
 10
760.5177131247522
 20
565.2129136126283
 30
0.0
 40
10.00000000000171
 50
288.5695544611637
 51
0.0
  0
ARC
  5
99
  8
HILFSLINIEN
  6
VOLLINIE
 62
    18
 10
760.5177131247532
 20
565.2129136126287
 30
0.0
 40
13.00000000000131
 50
288.5695544611558
 51
326.7415183095727
  0
ARC
  5
9A
  8
HILFSLINIEN
  6
VOLLINIE
 62
    18
 10
771.7386893766744
 20
560.9597157623241
 30
0.0
 40
1.999999999999433
 50
43.40020730416249
 51
159.2412922832027
  0
ARC
  5
9B
  8
HILFSLINIEN
  6
VOLLINIE
 62
    18
 10
772.2245828582046
 20
557.535075307219
 30
0.0
 40
0.9999999999992644
 50
43.40020730413396
 51
146.741518309632
  0
ARC
  5
9C
  8
HILFSLINIEN
  6
VOLLINIE
 62
    18
 10
720.5677131247535
 20
547.8939842707612
 30
0.0
 40
0.9999999999995924
 50
180.0
 51
270.000000000013
  0
LINE
  5
9D
  8
HILFSLINIEN
  6
VOLLINIE
 62
    18
 10
732.3769545242428
 20
557.444704160468
 30
0.0
 11
732.3769545242428
 21
547.0719929686198
 31
0.0
  0
ARC
  5
9E
  8
HILFSLINIEN
  6
VOLLINIE
 62
    18
 10
720.5677131247535
 20
556.8939842707624
 30
0.0
 40
0.9999999999995924
 50
89.99999999998697
 51
180.0
  0
LINE
  5
9F
  8
HILFSLINIEN
  6
VOLLINIE
 62
    18
 10
720.5677131247537
 20
557.893984270762
 30
0.0
 11
732.1433457305952
 21
557.8939842707613
 31
0.0
  0
ARC
  5
A0
  8
HILFSLINIEN
  6
VOLLINIE
 62
    18
 10
732.143345730596
 20
556.8939842707581
 30
0.0
 40
1.000000000003232
 50
63.86232458752423
 51
90.0000000000456
  0
ARC
  5
A1
  8
HILFSLINIEN
  6
VOLLINIE
 62
    18
 10
736.3769545242438
 20
551.9210497600077
 30
0.0
 40
1.000000000001055
 50
71.51352758415888
 51
180.0
  0
LINE
  5
A2
  8
HILFSLINIEN
  6
VOLLINIE
 62
    18
 10
735.3769545242428
 20
551.9210497600087
 30
0.0
 11
735.3769545242428
 21
549.6091234834918
 31
0.0
  0
ARC
  5
A3
  8
HILFSLINIEN
  6
VOLLINIE
 62
    18
 10
736.376954524243
 20
549.609123483492
 30
0.0
 40
1.00000000000021
 50
180.0
 51
250.4683124251147
  0
LINE
  5
A4
  8
HILFSLINIEN
  6
VOLLINIE
 62
    18
 10
719.5677131247539
 20
556.8939842707615
 30
0.0
 11
719.5677131247539
 21
547.8939842707614
 31
0.0
  0
LINE
  5
A5
  8
HILFSLINIEN
  6
VOLLINIE
 62
    18
 10
720.5677131247537
 20
546.8939842707616
 30
0.0
 11
732.0738461341657
 21
546.8939842707616
 31
0.0
  0
ARC
  5
A6
  8
HILFSLINIEN
  6
VOLLINIE
 62
    18
 10
732.0738461341635
 20
545.893984270745
 30
0.0
 40
1.000000000016654
 50
68.02519378082879
 51
89.99999999987624
  0
LINE
  5
A7
  8
HILFSLINIEN
  6
VOLLINIE
 62
    18
 10
798.917713124754
 20
558.5249609323782
 30
0.0
 11
798.917713124754
 21
567.7373498309627
 31
0.0
  0
ARC
  5
A8
  8
HILFSLINIEN
  6
VOLLINIE
 62
    18
 10
803.9177131247535
 20
561.1151535826025
 30
0.0
 40
1.999999999999548
 50
52.24303106878909
 51
180.0
  0
ARC
  5
A9
  8
HILFSLINIEN
  6
VOLLINIE
 62
    18
 10
879.0877131247539
 20
561.0989842707614
 30
0.0
 40
2.999999999999992
 50
280.1643706900134
 51
93.63593892232475
  0
ARC
  5
AA
  8
HILFSLINIEN
  6
VOLLINIE
 62
    18
 10
879.0877131247536
 20
561.0989842707615
 30
0.0
 40
5.999999999999966
 50
280.1643706900197
 51
93.63593892231943
  0
ARC
  5
AB
  8
HILFSLINIEN
  6
VOLLINIE
 62
    18
 10
880.609709650845
 20
537.1472927527407
 30
0.0
 40
29.99999999999716
 50
93.635938922321
 51
122.5261487777444
  0
ARC
  5
AC
  8
HILFSLINIEN
  6
VOLLINIE
 62
    18
 10
880.6097096508443
 20
537.1472927527387
 30
0.0
 40
26.999999999999
 50
93.63593892231913
 51
122.5261487777414
  0
LINE
  5
AD
  8
HILFSLINIEN
  6
VOLLINIE
 62
     6
 10
879.0877131247536
 20
552.0989842707615
 30
0.0
 11
879.0877131247536
 21
570.0989842707615
 31
0.0
  0
ARC
  5
AE
  8
HILFSLINIEN
  6
VOLLINIE
 62
    18
 10
834.9177131247537
 20
612.5989842707573
 30
0.0
 40
66.99999999999602
 50
243.1527866739938
 51
298.3816930776229
  0
ARC
  5
AF
  8
HILFSLINIEN
  6
VOLLINIE
 62
    18
 10
834.917713124754
 20
612.5989842707637
 30
0.0
 40
70.00000000000183
 50
239.7228518394368
 51
298.38169307762
  0
ARC
  5
B0
  8
HILFSLINIEN
  6
VOLLINIE
 62
    18
 10
837.5949527486217
 20
604.5989842707597
 30
0.0
 40
52.9999999999983
 50
232.2430310688147
 51
302.5261487777441
  0
ARC
  5
B1
  8
HILFSLINIEN
  6
VOLLINIE
 62
    18
 10
887.2054566481996
 20
515.8209295412735
 30
0.0
 40
42.99999999998872
 50
100.1643706900151
 51
118.3816930776214
  0
ARC
  5
B2
  8
HILFSLINIEN
  6
VOLLINIE
 62
    18
 10
887.2054566482065
 20
515.8209295412576
 30
0.0
 40
40.00000000000569
 50
100.1643706900203
 51
118.3816930776195
  0
LINE
  5
B3
  8
HILFSLINIEN
  6
VOLLINIE
 62
     6
 10
871.0877131247536
 20
561.0989842707614
 30
0.0
 11
887.0877131247536
 21
561.0989842707614
 31
0.0
  0
ARC
  5
B4
  8
HILFSLINIEN
  6
VOLLINIE
 62
    18
 10
806.9177131247524
 20
557.2817175270034
 30
0.0
 40
4.999999999998463
 50
180.0
 51
243.1527866740024
  0
ARC
  5
B5
  8
HILFSLINIEN
  6
VOLLINIE
 62
    18
 10
808.9177131247538
 20
558.5249609323785
 30
0.0
 40
9.99999999999994
 50
180.0
 51
244.3207113805904
  0
LINE
  5
B6
  8
HILFSLINIEN
  6
VOLLINIE
 62
    18
 10
801.917713124754
 20
557.2817175270046
 30
0.0
 11
801.917713124754
 21
561.1151535826016
 31
0.0
  0
ARC
  5
B7
  8
HILFSLINIEN
  6
VOLLINIE
 62
    18
 10
800.9177131247538
 20
567.7373498309629
 30
0.0
 40
1.999999999999855
 50
45.14366581905954
 51
180.0
  0
CIRCLE
  5
B8
  8
HILFSLINIEN
  6
VOLLINIE
 62
    18
 10
790.2477131247539
 20
573.7689842707613
 30
0.0
 40
2.500000000000114
  0
ARC
  5
B9
  8
HILFSLINIEN
  6
VOLLINIE
 62
    18
 10
837.5949527486221
 20
542.938984270763
 30
0.0
 40
52.99999999999885
 50
57.47385122225678
 51
127.7569689311853
  0
ARC
  5
BA
  8
HILFSLINIEN
  6
VOLLINIE
 62
    18
 10
834.9177131247538
 20
534.9389842707621
 30
0.0
 40
69.99999999999953
 50
61.61830692237888
 51
120.2771481605642
  0
ARC
  5
BB
  8
HILFSLINIEN
  6
VOLLINIE
 62
    18
 10
834.9177131247536
 20
534.9389842707593
 30
0.0
 40
67.00000000000222
 50
61.61830692237982
 51
116.8472133260034
  0
ARC
  5
BC
  8
HILFSLINIEN
  6
VOLLINIE
 62
    18
 10
837.5949527486224
 20
542.9389842707608
 30
0.0
 40
50.00000000000075
 50
57.47385122225789
 51
146.9299686083339
  0
LINE
  5
BD
  8
HILFSLINIEN
  6
VOLLINIE
 62
     6
 10
879.0877131247536
 20
595.4389842707617
 30
0.0
 11
879.0877131247536
 21
577.4389842707617
 31
0.0
  0
ARC
  5
BE
  8
HILFSLINIEN
  6
VOLLINIE
 62
    18
 10
887.2054566482037
 20
631.7170390002577
 30
0.0
 40
39.99999999999729
 50
241.6183069223786
 51
259.8356293099816
  0
ARC
  5
BF
  8
HILFSLINIEN
  6
VOLLINIE
 62
    18
 10
887.205456648205
 20
631.7170390002624
 30
0.0
 40
43.00000000000202
 50
241.6183069223802
 51
259.8356293099808
  0
ARC
  5
C0
  8
HILFSLINIEN
  6
VOLLINIE
 62
    18
 10
880.6097096508433
 20
610.39067578878
 30
0.0
 40
26.99999999999446
 50
237.4738512222546
 51
266.3640610776822
  0
ARC
  5
C1
  8
HILFSLINIEN
  6
VOLLINIE
 62
    18
 10
880.6097096508443
 20
610.3906757887808
 30
0.0
 40
29.99999999999536
 50
237.4738512222551
 51
266.3640610776803
  0
ARC
  5
C2
  8
HILFSLINIEN
  6
VOLLINIE
 62
    18
 10
879.0877131247537
 20
586.4389842707617
 30
0.0
 40
5.999999999999964
 50
266.3640610776795
 51
79.83562930998133
  0
ARC
  5
C3
  8
HILFSLINIEN
  6
VOLLINIE
 62
    18
 10
879.087713124754
 20
586.4389842707618
 30
0.0
 40
2.999999999999988
 50
266.3640610776731
 51
79.8356293099888
  0
LINE
  5
C4
  8
HILFSLINIEN
  6
VOLLINIE
 62
     6
 10
871.0877131247536
 20
586.4389842707617
 30
0.0
 11
887.0877131247536
 21
586.4389842707617
 31
0.0
  0
ARC
  5
C5
  8
HILFSLINIEN
  6
VOLLINIE
 62
    18
 10
800.9177131247538
 20
579.8006187105603
 30
0.0
 40
1.999999999999855
 50
180.0
 51
314.8563341809405
  0
ARC
  5
C6
  8
HILFSLINIEN
  6
VOLLINIE
 62
    18
 10
775.7016691931311
 20
581.5576045554606
 30
0.0
 40
9.999999999997812
 50
331.8333574032391
 51
22.75244320643747
  0
ARC
  5
C7
  8
HILFSLINIEN
  6
VOLLINIE
 62
    18
 10
808.9177131247529
 20
589.0130076091453
 30
0.0
 40
9.999999999998982
 50
115.679288619402
 51
180.0
  0
ARC
  5
C8
  8
HILFSLINIEN
  6
VOLLINIE
 62
    18
 10
794.5830549524387
 20
604.0267208824224
 30
0.0
 40
9.999999999998233
 50
257.1651299942102
 51
300.2771481605674
  0
LINE
  5
C9
  8
HILFSLINIEN
  6
VOLLINIE
 62
    18
 10
801.917713124754
 20
590.256251014519
 30
0.0
 11
801.917713124754
 21
586.4228149589217
 31
0.0
  0
LINE
  5
CA
  8
HILFSLINIEN
  6
VOLLINIE
 62
    18
 10
798.917713124754
 20
589.0130076091447
 30
0.0
 11
798.917713124754
 21
579.8006187105606
 31
0.0
  0
ARC
  5
CB
  8
HILFSLINIEN
  6
VOLLINIE
 62
    18
 10
806.9177131247535
 20
590.2562510145195
 30
0.0
 40
4.999999999999494
 50
116.8472133260056
 51
180.0
  0
ARC
  5
CC
  8
HILFSLINIEN
  6
VOLLINIE
 62
    18
 10
803.9177131247536
 20
586.4228149589208
 30
0.0
 40
1.999999999999629
 50
180.0
 51
307.7569689312064
  0
CIRCLE
  5
CD
  8
HILFSLINIEN
  6
VOLLINIE
 62
    18
 10
790.9177131247536
 20
587.9389842707615
 30
0.0
 40
2.500000000000227
  0
LINE
  5
CE
  8
HILFSLINIEN
  6
VOLLINIE
 62
    18
 10
731.7022051160516
 20
453.4223389791584
 30
0.0
 11
796.4177131247538
 21
453.4223389791584
 31
0.0
  0
LINE
  5
CF
  8
HILFSLINIEN
  6
VOLLINIE
 62
    18
 10
731.7022051160516
 20
445.5223389791584
 30
0.0
 11
783.4918372450355
 21
445.5223389791584
 31
0.0
  0
LINE
  5
D0
  8
HILFSLINIEN
  6
VOLLINIE
 62
    18
 10
785.4918372450359
 20
449.4223389791582
 30
0.0
 11
796.4177131247538
 21
449.4223389791586
 31
0.0
  0
ARC
  5
D1
  8
HILFSLINIEN
  6
VOLLINIE
 62
    18
 10
796.4177131247546
 20
450.4223389791576
 30
0.0
 40
0.9999999999990101
 50
269.9999999999544
 51
0.0
  0
LINE
  5
D2
  8
HILFSLINIEN
  6
VOLLINIE
 62
    18
 10
797.4177131247536
 20
452.4223389791583
 30
0.0
 11
797.4177131247536
 21
450.4223389791584
 31
0.0
  0
ARC
  5
D3
  8
HILFSLINIEN
  6
VOLLINIE
 62
    18
 10
796.4177131247546
 20
452.4223389791593
 30
0.0
 40
0.9999999999990101
 50
0.0
 51
90.0000000000456
  0
LINE
  5
D4
  8
HILFSLINIEN
  6
VOLLINIE
 62
    18
 10
793.4177131247537
 20
453.4223389791584
 30
0.0
 11
793.4177131247537
 21
449.4223389791582
 31
0.0
  0
LINE
  5
D5
  8
HILFSLINIEN
  6
VOLLINIE
 62
    18
 10
788.4177131247542
 20
453.4223389791584
 30
0.0
 11
788.4177131247535
 21
449.4223389791582
 31
0.0
  0
LINE
  5
D6
  8
HILFSLINIEN
  6
VOLLINIE
 62
    18
 10
780.0177131247539
 20
445.5223389791584
 30
0.0
 11
780.0177131247539
 21
453.4223389791584
 31
0.0
  0
LINE
  5
D7
  8
HILFSLINIEN
  6
VOLLINIE
 62
    18
 10
784.4918372450361
 20
448.4223389791584
 30
0.0
 11
784.4918372450361
 21
446.5223389791585
 31
0.0
  0
ARC
  5
D8
  8
HILFSLINIEN
  6
VOLLINIE
 62
    18
 10
783.4918372450358
 20
446.5223389791587
 30
0.0
 40
1.000000000000369
 50
269.999999999987
 51
0.0
  0
ARC
  5
D9
  8
HILFSLINIEN
  6
VOLLINIE
 62
    18
 10
785.4918372450351
 20
448.4223389791592
 30
0.0
 40
0.9999999999990101
 50
89.99999999995441
 51
180.0
  0
LINE
  5
DA
  8
HILFSLINIEN
  6
VOLLINIE
 62
    18
 10
769.8685266680212
 20
445.5223389791584
 30
0.0
 11
769.8685266680212
 21
453.4223389791584
 31
0.0
  0
LINE
  5
DB
  8
HILFSLINIEN
  6
VOLLINIE
 62
    18
 10
775.0177131247536
 20
445.5223389791584
 30
0.0
 11
775.0177131247536
 21
453.4223389791584
 31
0.0
  0
LINE
  5
DC
  8
HILFSLINIEN
  6
VOLLINIE
 62
     6
 10
726.0677131247536
 20
440.4723389791586
 30
0.0
 11
726.0677131247536
 21
458.4723389791585
 31
0.0
  0
CIRCLE
  5
DD
  8
HILFSLINIEN
  6
VOLLINIE
 62
    18
 10
726.0677131247539
 20
449.4723389791586
 30
0.0
 40
6.5
  0
LINE
  5
DE
  8
HILFSLINIEN
  6
VOLLINIE
 62
     6
 10
716.2175629488949
 20
449.4723389791586
 30
0.0
 11
735.6266327584076
 21
449.4723389791586
 31
0.0
  0
CIRCLE
  5
DF
  8
HILFSLINIEN
  6
VOLLINIE
 62
    18
 10
726.0677131247539
 20
449.4723389791586
 30
0.0
 40
3.000000000000057
  0
ARC
  5
E0
  8
HILFSLINIEN
  6
VOLLINIE
 62
    18
 10
731.7022051160519
 20
444.5223389791573
 30
0.0
 40
1.000000000001087
 50
90.00000000001954
 51
138.700127208264
  0
ARC
  5
E1
  8
HILFSLINIEN
  6
VOLLINIE
 62
    18
 10
731.7022051160523
 20
454.4223389791601
 30
0.0
 40
1.000000000001708
 50
221.2998727917476
 51
269.9999999999609
  0
LINE
  5
E2
  8
HILFSLINIEN
  6
VOLLINIE
 62
    18
 10
784.7477131247537
 20
445.5223389791584
 30
0.0
 11
798.9177131247546
 21
445.5223389791584
 31
0.0
  0
ARC
  5
E3
  8
HILFSLINIEN
  6
VOLLINIE
 62
    18
 10
784.7477131247535
 20
448.4223389791589
 30
0.0
 40
0.9999999999996895
 50
89.99999999999349
 51
180.0
  0
LINE
  5
E4
  8
HILFSLINIEN
  6
VOLLINIE
 62
     6
 10
790.9547751848949
 20
442.6460362799925
 30
0.0
 11
790.9547751848949
 21
456.1986416783243
 31
0.0
  0
LINE
  5
E5
  8
HILFSLINIEN
  6
VOLLINIE
 62
    18
 10
793.4177131247537
 20
445.5223389791584
 30
0.0
 11
793.4177131247537
 21
449.4223389791586
 31
0.0
  0
LINE
  5
E6
  8
HILFSLINIEN
  6
VOLLINIE
 62
    18
 10
792.747713124754
 20
445.5223389791584
 30
0.0
 11
792.747713124754
 21
449.4223389791582
 31
0.0
  0
LINE
  5
E7
  8
HILFSLINIEN
  6
VOLLINIE
 62
    18
 10
788.4177131247542
 20
445.5223389791584
 30
0.0
 11
788.4177131247542
 21
449.4223389791586
 31
0.0
  0
LINE
  5
E8
  8
HILFSLINIEN
  6
VOLLINIE
 62
    18
 10
787.7477131247538
 20
445.5223389791584
 30
0.0
 11
787.7477131247538
 21
449.4223389791586
 31
0.0
  0
ARC
  5
E9
  8
HILFSLINIEN
  6
VOLLINIE
 62
    18
 10
797.917713124753
 20
450.4223389791591
 30
0.0
 40
1.000000000000854
 50
270.0000000000651
 51
0.0
  0
ARC
  5
EA
  8
HILFSLINIEN
  6
VOLLINIE
 62
    18
 10
784.7477131247529
 20
446.5223389791574
 30
0.0
 40
0.9999999999990101
 50
180.0
 51
270.0000000000456
  0
LINE
  5
EB
  8
HILFSLINIEN
  6
VOLLINIE
 62
    18
 10
783.7477131247539
 20
446.5223389791585
 30
0.0
 11
783.7477131247539
 21
448.4223389791584
 31
0.0
  0
LINE
  5
EC
  8
HILFSLINIEN
  6
VOLLINIE
 62
    18
 10
784.7477131247537
 20
449.4223389791586
 30
0.0
 11
797.9177131247542
 21
449.4223389791582
 31
0.0
  0
LINE
  5
ED
  8
HILFSLINIEN
  6
VOLLINIE
 62
    18
 10
798.917713124754
 20
450.4223389791584
 30
0.0
 11
798.9177131247546
 21
454.0034898951749
 31
0.0
  0
ARC
  5
EE
  8
HILFSLINIEN
  6
VOLLINIE
 62
    18
 10
881.8877131247536
 20
450.2723389791584
 30
0.0
 40
3.200000000000041
 50
271.0698586529654
 51
88.93014134703463
  0
LINE
  5
EF
  8
HILFSLINIEN
  6
VOLLINIE
 62
    18
 10
798.9177131247546
 20
445.5223389791584
 30
0.0
 11
881.9474618318524
 21
447.0728968259073
 31
0.0
  0
LINE
  5
F0
  8
HILFSLINIEN
  6
VOLLINIE
 62
    18
 10
799.9363845957228
 20
455.0033155680661
 30
0.0
 11
881.9474618318524
 21
453.4717811324095
 31
0.0
  0
ARC
  5
F1
  8
HILFSLINIEN
  6
VOLLINIE
 62
    18
 10
799.9177131247551
 20
454.0034898951747
 30
0.0
 40
1.00000000000044
 50
88.93014134707457
 51
180.0
  0
LINE
  5
F2
  8
HILFSLINIEN
  6
STRICHLINIE_LANG
 62
    18
 10
737.376954524243
 20
447.5223389791583
 30
0.0
 11
778.0177131247536
 21
447.5223389791583
 31
0.0
  0
LINE
  5
F3
  8
HILFSLINIEN
  6
STRICHLINIE_LANG
 62
    18
 10
737.376954524243
 20
451.4223389791585
 30
0.0
 11
778.0177131247536
 21
451.4223389791585
 31
0.0
  0
ARC
  5
F4
  8
HILFSLINIEN
  6
STRICHLINIE_LANG
 62
    18
 10
737.3769545242435
 20
445.5223389791577
 30
0.0
 40
2.00000000000064
 50
90.00000000001303
 51
180.0
  0
ARC
  5
F5
  8
HILFSLINIEN
  6
STRICHLINIE_LANG
 62
    18
 10
737.3769545242435
 20
453.4223389791591
 30
0.0
 40
2.00000000000064
 50
180.0
 51
269.999999999987
  0
ARC
  5
F6
  8
HILFSLINIEN
  6
STRICHLINIE_LANG
 62
    18
 10
778.0177131247546
 20
445.522338979159
 30
0.0
 40
1.999999999999282
 50
0.0
 51
90.00000000002606
  0
ARC
  5
F7
  8
HILFSLINIEN
  6
STRICHLINIE_LANG
 62
    18
 10
778.0177131247546
 20
453.4223389791578
 30
0.0
 40
1.999999999999282
 50
269.999999999974
 51
0.0
  0
LINE
  5
F8
  8
HILFSLINIEN
  6
STRICHLINIE_LANG
 62
    18
 10
881.0877131247539
 20
448.3223389791585
 30
0.0
 11
802.9177131247537
 21
448.3223389791585
 31
0.0
  0
LINE
  5
F9
  8
HILFSLINIEN
  6
STRICHLINIE_LANG
 62
    18
 10
881.0877131247539
 20
452.2223389791583
 30
0.0
 11
802.9177131247537
 21
452.2223389791583
 31
0.0
  0
ARC
  5
FA
  8
HILFSLINIEN
  6
STRICHLINIE_LANG
 62
    18
 10
881.0877131247547
 20
447.3223389791594
 30
0.0
 40
0.9999999999990101
 50
0.0
 51
90.0000000000456
  0
ARC
  5
FB
  8
HILFSLINIEN
  6
STRICHLINIE_LANG
 62
    18
 10
881.0877131247541
 20
453.2223389791579
 30
0.0
 40
0.9999999999995924
 50
269.999999999987
 51
0.0
  0
ARC
  5
FC
  8
HILFSLINIEN
  6
STRICHLINIE_LANG
 62
    18
 10
802.9177131247529
 20
447.3223389791594
 30
0.0
 40
0.9999999999990101
 50
89.99999999995441
 51
180.0
  0
ARC
  5
FD
  8
HILFSLINIEN
  6
STRICHLINIE_LANG
 62
    18
 10
802.9177131247535
 20
453.2223389791579
 30
0.0
 40
0.9999999999995923
 50
180.0
 51
270.000000000013
  0
ARC
  5
FE
  8
HILFSLINIEN
  6
VOLLINIE
 62
    18
 10
756.7709709668262
 20
540.438984270761
 30
0.0
 40
65.00000000000064
 50
55.6276727952732
 51
111.9748062193923
  0
ARC
  5
FF
  8
HILFSLINIEN
  6
VOLLINIE
 62
    18
 10
790.9177131247536
 20
587.9389842707615
 30
0.0
 40
6.500000000000257
 50
77.16512999421022
 51
202.7524602025937
  0
ARC
  5
100
  8
HILFSLINIEN
  6
VOLLINIE
 62
    18
 10
790.2477131247539
 20
573.7689842707613
 30
0.0
 40
6.500000000000639
 50
151.8333756489107
 51
326.9299686083338
  0
ARC
  5
101
  8
HILFSLINIEN
  6
VOLLINIE
 62
    18
 10
837.5949527486226
 20
604.5989842707634
 30
0.0
 40
50.00000000000153
 50
218.0682713492627
 51
302.5261487777412
  0
ARC
  5
102
  8
HILFSLINIEN
  6
VOLLINIE
 62
    18
 10
791.5010619494806
 20
573.0863748319007
 30
0.0
 40
7.000000000000539
 50
215.3367796968369
 51
267.5234195763731
  0
ARC
  5
103
  8
HILFSLINIEN
  6
VOLLINIE
 62
    18
 10
777.5177131247538
 20
573.7689842707613
 30
0.0
 40
7.000000000000694
 50
18.7089380021721
 51
179.999973977405
  0
ARC
  5
104
  8
HILFSLINIEN
  6
VOLLINIE
 62
    18
 10
790.9177131247536
 20
559.5989842707618
 30
0.0
 40
6.500000000000547
 50
305.7115563766906
 51
87.52341957637753
  0
ARC
  5
105
  8
HILFSLINIEN
  6
VOLLINIE
 62
    18
 10
790.9177131247536
 20
559.5989842707618
 30
0.0
 40
6.500000000000547
 50
305.7115563766906
 51
87.52341957637753
  0
LINE
  5
106
  8
HILFSLINIEN
  6
VOLLINIE
 62
     6
 10
790.9177131247536
 20
583.0287955216851
 30
0.0
 11
790.9177131247536
 21
592.849173019838
 31
0.0
  0
LINE
  5
107
  8
HILFSLINIEN
  6
VOLLINIE
 62
     6
 10
786.0075243756771
 20
587.9389842707615
 30
0.0
 11
795.82790187383
 21
587.9389842707615
 31
0.0
  0
ARC
  5
108
  8
HILFSLINIEN
  6
VOLLINIE
 62
    18
 10
794.5830549524389
 20
543.5112476591017
 30
0.0
 40
9.99999999999738
 50
59.72285183943118
 51
96.40257813074412
  0
ARC
  5
109
  8
HILFSLINIEN
  6
VOLLINIE
 62
    18
 10
782.491837245035
 20
597.9493054131308
 30
0.0
 40
2.000000000000725
 50
316.5997926958481
 51
54.52955283553724
  0
LINE
  5
10A
  8
LAYER1
  6
VOLLINIE
 62
     6
 10
790.2477131247539
 20
568.8587955216848
 30
0.0
 11
790.2477131247539
 21
578.6791730198377
 31
0.0
  0
LINE
  5
10B
  8
LAYER1
  6
VOLLINIE
 62
     6
 10
785.3375243756775
 20
573.7689842707613
 30
0.0
 11
795.1579018738304
 21
573.7689842707613
 31
0.0
  0
LINE
  5
10C
  8
LAYER1
  6
VOLLINIE
 62
     6
 10
777.5177131247538
 20
568.8587955216848
 30
0.0
 11
777.5177131247538
 21
578.6791730198377
 31
0.0
  0
LINE
  5
10D
  8
LAYER1
  6
VOLLINIE
 62
     6
 10
772.6075243756773
 20
573.7689842707613
 30
0.0
 11
782.4279018738303
 21
573.7689842707613
 31
0.0
  0
LINE
  5
10E
  8
LAYER1
  6
VOLLINIE
 62
     6
 10
790.9177131247536
 20
554.6887955216853
 30
0.0
 11
790.9177131247536
 21
564.5091730198382
 31
0.0
  0
LINE
  5
10F
  8
LAYER1
  6
VOLLINIE
 62
     6
 10
786.0075243756771
 20
559.5989842707618
 30
0.0
 11
795.82790187383
 21
559.5989842707618
 31
0.0
  0
LINE
  5
110
  8
LAYER1
  6
VOLLINIE
 62
     6
 10
736.2759436112163
 20
606.105229039984
 30
0.0
 11
746.2553075539954
 21
625.5804577462711
 31
0.0
  0
LINE
  5
111
  8
LAYER1
  6
VOLLINIE
 62
     6
 10
744.7883904539244
 20
608.8825378599048
 30
0.0
 11
749.5186537748965
 21
618.1138837197326
 31
0.0
  0
LINE
  5
112
  8
LAYER1
  6
VOLLINIE
 62
     6
 10
733.6397635108367
 20
615.2140522846831
 30
0.0
 11
737.7440298980285
 21
623.2237337654269
 31
0.0
  0
LINE
  5
113
  8
LAYER1
  6
STRICHLINIE_LANG
 62
     6
 10
736.2986100436608
 20
612.7279840806925
 30
0.0
 11
741.3149356280055
 21
622.5175947793796
 31
0.0
  0
LINE
  5
114
  8
LAYER1
  6
STRICHLINIE_LANG
 62
     6
 10
735.4086454346893
 20
613.1840136792694
 30
0.0
 11
740.424971019034
 21
622.9736243779564
 31
0.0
  0
LINE
  5
115
  8
LAYER1
  6
STRICHLINIE_LANG
 62
     6
 10
742.5283623064612
 20
609.5357768906551
 30
0.0
 11
747.5446878908067
 21
619.3253875893419
 31
0.0
  0
LINE
  5
116
  8
LAYER1
  6
STRICHLINIE_LANG
 62
     6
 10
741.6383976974897
 20
609.9918064892316
 30
0.0
 11
746.6547232818352
 21
619.7814171879187
 31
0.0
  0
LINE
  5
117
  8
LAYER1
  6
VOLLINIE
 62
     6
 10
734.0736985212317
 20
613.8680580771348
 30
0.0
 11
744.375601866888
 21
608.5892269866201
 31
0.0
  0
ARC
  5
118
  8
LAYER1
  6
VOLLINIE
 62
     6
 10
744.8316314654662
 20
609.4791915955979
 30
0.0
 40
1.000000000006438
 50
242.8688000001004
 51
269.0064754125128
  0
ARC
  5
119
  8
LAYER1
  6
VOLLINIE
 62
     6
 10
734.5297281198089
 20
614.7580226861062
 30
0.0
 40
0.9999999999999925
 50
152.8687999999919
 51
242.8687999999773
  0
LINE
  5
11A
  8
LAYER1
  6
VOLLINIE
 62
     6
 10
739.0900241055765
 20
623.6576687758215
 30
0.0
 11
749.3300752700726
 21
618.410531558368
 31
0.0
  0
ARC
  5
11B
  8
LAYER1
  6
VOLLINIE
 62
     6
 10
751.9215056005484
 20
614.0318089588475
 30
0.0
 40
1.000000000000189
 50
82.40048757485525
 51
152.8688000000067
  0
ARC
  5
11C
  8
LAYER1
  6
VOLLINIE
 62
     6
 10
750.8671987887288
 20
611.9742763941962
 30
0.0
 40
0.9999999999995516
 50
152.8687999999713
 51
261.3552724159164
  0
LINE
  5
11D
  8
LAYER1
  6
VOLLINIE
 62
     6
 10
749.9772341797579
 20
612.4303059927732
 30
0.0
 11
751.0315409915765
 21
614.4878385574243
 31
0.0
  0
ARC
  5
11E
  8
LAYER1
  6
VOLLINIE
 62
     6
 10
749.7861048686509
 20
619.3004961673449
 30
0.0
 40
1.000000000005436
 50
242.8688000000649
 51
264.8436062193661
  0
ARC
  5
11F
  8
LAYER1
  6
VOLLINIE
 62
     6
 10
738.6339945069998
 20
622.7677041668505
 30
0.0
 40
0.9999999999994614
 50
62.86879999999165
 51
152.868800000015
  0
ARC
  5
120
  8
LAYER1
  6
VOLLINIE
 62
     6
 10
738.6339945069998
 20
524.7702643746725
 30
0.0
 40
0.9999999999994612
 50
207.1311999999851
 51
297.1312000000083
  0
LINE
  5
121
  8
LAYER1
  6
VOLLINIE
 62
     6
 10
734.0736985212317
 20
533.6699104643881
 30
0.0
 11
744.375601866888
 21
538.9487415549029
 31
0.0
  0
LINE
  5
122
  8
LAYER1
  6
VOLLINIE
 62
     6
 10
733.6397635108367
 20
532.3239162568398
 30
0.0
 11
737.7440298980285
 21
524.3142347760961
 31
0.0
  0
LINE
  5
123
  8
LAYER1
  6
VOLLINIE
 62
     6
 10
744.7883904539244
 20
538.6554306816182
 30
0.0
 11
749.5186537748965
 21
529.4240848217903
 31
0.0
  0
ARC
  5
124
  8
LAYER1
  6
VOLLINIE
 62
     6
 10
744.8316314654662
 20
538.0587769459252
 30
0.0
 40
1.000000000006438
 50
90.99352458748716
 51
117.1311999998996
  0
LINE
  5
125
  8
LAYER1
  6
VOLLINIE
 62
     6
 10
739.0900241055765
 20
523.880299765701
 30
0.0
 11
749.3300752700726
 21
529.1274369831549
 31
0.0
  0
ARC
  5
126
  8
LAYER1
  6
VOLLINIE
 62
     6
 10
751.9215056005487
 20
533.5061595826763
 30
0.0
 40
1.000000000001062
 50
207.1312000000482
 51
277.5995124251185
  0
ARC
  5
127
  8
LAYER1
  6
VOLLINIE
 62
     6
 10
750.8671987887288
 20
535.5636921473268
 30
0.0
 40
0.999999999999489
 50
98.64472758408454
 51
207.1312000000287
  0
LINE
  5
128
  8
LAYER1
  6
VOLLINIE
 62
     6
 10
749.9772341797579
 20
535.1076625487498
 30
0.0
 11
751.0315409915765
 21
533.0501299840982
 31
0.0
  0
ARC
  5
129
  8
LAYER1
  6
VOLLINIE
 62
     6
 10
749.786104868652
 20
528.2374723741751
 30
0.0
 40
1.000000000008525
 50
95.15639378068359
 51
117.1311999999188
  0
ARC
  5
12A
  8
LAYER1
  6
VOLLINIE
 62
     6
 10
734.5297281198089
 20
532.7799458554167
 30
0.0
 40
0.9999999999999923
 50
117.1312000000226
 51
207.1312000000081
  0
ARC
  5
12B
  8
LAYER1
  6
VOLLINIE
 62
     6
 10
833.7281314021031
 20
487.6095628617409
 30
0.0
 40
5.999999999999921
 50
214.5884706900178
 51
28.06003892232334
  0
ARC
  5
12C
  8
LAYER1
  6
VOLLINIE
 62
     6
 10
812.5492075669747
 20
476.3200462562352
 30
0.0
 40
30.00000000000324
 50
28.06003892232365
 51
56.95024877774145
  0
LINE
  5
12D
  8
LAYER1
  6
VOLLINIE
 62
     6
 10
825.5335430358923
 20
483.8881758208157
 30
0.0
 11
841.9227197683138
 21
491.3309499026657
 31
0.0
  0
ARC
  5
12E
  8
LAYER1
  6
VOLLINIE
 62
     6
 10
795.8586030708419
 20
461.4963703344216
 30
0.0
 40
43.00000000001145
 50
34.58847069002184
 51
52.80579307761917
  0
ARC
  5
12F
  8
LAYER1
  6
VOLLINIE
 62
     6
 10
812.5492075669811
 20
476.3200462562413
 30
0.0
 40
26.99999999999472
 50
28.06003892231821
 51
56.95024877774514
  0
ARC
  5
130
  8
LAYER1
  6
VOLLINIE
 62
     6
 10
795.8586030708439
 20
461.4963703344228
 30
0.0
 40
40.0000000000091
 50
34.58847069002216
 51
52.80579307762046
  0
LINE
  5
131
  8
LAYER1
  6
VOLLINIE
 62
     6
 10
830.4202318101696
 20
494.8936414094836
 30
0.0
 11
837.0360309940364
 21
480.325484313998
 31
0.0
  0
ARC
  5
132
  8
LAYER1
  6
VOLLINIE
 62
     6
 10
833.728131402103
 20
487.6095628617408
 30
0.0
 40
2.999999999999944
 50
214.5884706900204
 51
28.06003892232139
  0
ARC
  5
133
  8
LAYER1
  6
VOLLINIE
 62
     6
 10
812.5492075669747
 20
671.317023927218
 30
0.0
 40
27.00000000000296
 50
303.0497512222595
 51
331.9399610776774
  0
ARC
  5
134
  8
LAYER1
  6
VOLLINIE
 62
     6
 10
812.5492075669773
 20
671.3170239272155
 30
0.0
 40
29.99999999999951
 50
303.0497512222574
 51
331.9399610776794
  0
ARC
  5
135
  8
LAYER1
  6
VOLLINIE
 62
     6
 10
833.728131402103
 20
660.0275073217127
 30
0.0
 40
2.999999999999958
 50
331.9399610776787
 51
145.4115293099787
  0
LINE
  5
136
  8
LAYER1
  6
VOLLINIE
 62
     6
 10
830.4202318101696
 20
652.7434287739701
 30
0.0
 11
837.0360309940365
 21
667.3115858694556
 31
0.0
  0
LINE
  5
137
  8
LAYER1
  6
VOLLINIE
 62
     6
 10
825.5335430358923
 20
663.7488943626378
 30
0.0
 11
841.9227197683138
 21
656.3061202807878
 31
0.0
  0
ARC
  5
138
  8
LAYER1
  6
VOLLINIE
 62
     6
 10
833.728131402103
 20
660.0275073217127
 30
0.0
 40
5.999999999999964
 50
331.9399610776787
 51
145.4115293099794
  0
ARC
  5
139
  8
LAYER1
  6
VOLLINIE
 62
     6
 10
795.8586030708614
 20
686.140699849014
 30
0.0
 40
39.99999999998504
 50
307.1942069223743
 51
325.4115293099838
  0
ARC
  5
13A
  8
LAYER1
  6
VOLLINIE
 62
     6
 10
795.8586030708478
 20
686.1406998490252
 30
0.0
 40
43.00000000000251
 50
307.19420692238
 51
325.4115293099815
  0
ARC
  5
13B
  8
LAYER1
  6
VOLLINIE
 62
     6
 10
862.3556464312362
 20
598.5156850169157
 30
0.0
 40
70.00000000000125
 50
127.1942069223793
 51
174.5488504448658
  0
ARC
  5
13C
  8
LAYER1
  6
VOLLINIE
 62
     6
 10
862.3556464312329
 20
598.515685016917
 30
0.0
 40
66.999999999998
 50
127.1942069223775
 51
174.6248195509252
  0
ARC
  5
13D
  8
LAYER1
  6
VOLLINIE
 62
     6
 10
856.1785728659054
 20
604.2612375727731
 30
0.0
 40
53.00000000000009
 50
123.0497512222569
 51
181.9391129168061
  0
ARC
  5
13E
  8
LAYER1
  6
VOLLINIE
 62
     6
 10
856.1785728659048
 20
604.2612375727734
 30
0.0
 40
49.99999999999958
 50
123.0497512222568
 51
183.8961471195031
  0
ARC
  5
13F
  8
LAYER1
  6
VOLLINIE
 62
     6
 10
856.1785728659052
 20
543.3758326106803
 30
0.0
 40
49.99999999999978
 50
176.2223763828139
 51
236.950248777743
  0
ARC
  5
140
  8
LAYER1
  6
VOLLINIE
 62
     6
 10
856.1785728659056
 20
543.3758326106805
 30
0.0
 40
53.00000000000036
 50
178.1696959602554
 51
236.950248777743
  0
ARC
  5
141
  8
LAYER1
  6
VOLLINIE
 62
     6
 10
862.3556464312342
 20
549.1213851665372
 30
0.0
 40
66.99999999999929
 50
185.4589243300144
 51
232.805793077622
  0
ARC
  5
142
  8
LAYER1
  6
VOLLINIE
 62
     6
 10
862.3556464312362
 20
549.1213851665378
 30
0.0
 40
70.00000000000124
 50
185.5320376685398
 51
232.8057930776208
  0
ARC
  5
143
  8
LAYER1
  6
VOLLINIE
 62
     6
 10
743.8543803321742
 20
593.9703761897275
 30
0.0
 40
62.00000000000151
 50
277.5995124251225
 51
306.0876112731324
  0
ARC
  5
144
  8
LAYER1
  6
VOLLINIE
 62
     6
 10
743.8543803321746
 20
593.9703761897262
 30
0.0
 40
65.00000000000017
 50
275.1563937806077
 51
308.2057691983191
  0
ARC
  5
145
  8
LAYER1
  6
VOLLINIE
 62
     6
 10
743.8543803321746
 20
553.5675923517967
 30
0.0
 40
65.00000000000016
 50
51.79423080168036
 51
84.84360621939233
  0
ARC
  5
146
  8
LAYER1
  6
VOLLINIE
 62
     6
 10
743.8543803321718
 20
553.5675923517911
 30
0.0
 40
62.00000000000614
 50
53.91238872686787
 51
82.40048757487584
  0
ARC
  5
147
  8
LAYER1
  6
VOLLINIE
 62
     6
 10
744.1033764019147
 20
567.4855058254341
 30
0.0
 40
41.0000000000037
 50
67.51691136057896
 51
89.00647541223104
  0
ARC
  5
148
  8
LAYER1
  6
VOLLINIE
 62
     6
 10
744.1033764019165
 20
567.4855058254374
 30
0.0
 40
44.00000000000021
 50
57.20665530584497
 51
81.3552724158942
  0
ARC
  5
149
  8
LAYER1
  6
VOLLINIE
 62
     6
 10
744.1033764019164
 20
580.0524627160847
 30
0.0
 40
40.99999999999949
 50
270.9935245877667
 51
292.4830886394247
  0
ARC
  5
14A
  8
LAYER1
  6
VOLLINIE
 62
     6
 10
744.1033764019202
 20
580.0524627160777
 30
0.0
 40
43.99999999999183
 50
278.6447275841027
 51
302.7933446941595
  0
LINE
  5
14B
  8
LAYER1
  6
VOLLINIE
 62
     6
 10
790.2477131247539
 20
442.6460362799925
 30
0.0
 11
790.2477131247539
 21
456.1986416783243
 31
0.0
  0
LINE
  5
14C
  8
LAYER1
  6
VOLLINIE
 62
     6
 10
777.5177131247538
 20
441.7683004635788
 30
0.0
 11
777.5177131247538
 21
455.3209058619106
 31
0.0
  0
ARC
  5
14D
  8
LAYER1
  6
VOLLINIE
 62
    18
 10
726.0677131247536
 20
449.4723389791585
 30
0.0
 40
4.0
 50
90.0
 51
0.0
  0
LINE
  5
14E
  8
BEMESSUNG
  6
VOLLINIE
 62
     6
 10
770.5177131247539
 20
575.2929842707612
 30
0.0
 11
770.5177131247539
 21
573.8289842707612
 31
0.0
  0
VIEWPORT
  5
64
 67
     1
  8
0
 10
0.0
 20
0.0
 30
0.0
 40
1.0
 41
1.0
 68
     1
 69
     1
1001
ACAD
1000
MVIEW
1002
{
1070
    16
1010
0.0
1020
0.0
1030
0.0
1020
0.0
1030
0.0
1010
0.0
1020
0.0
1030
1.0
1020
0.0
1030
1.0
1040
0.0
1040
1.0
1040
0.0
1040
0.0
1040
50.0
1040
0.0
1040
0.0
1070
     0
1070
   100
1070
     0
1070
     3
1070
     0
1070
     0
1070
     0
1070
     0
1040
0.0
1040
0.0
1040
0.0
1040
0.5
1040
0.5
1040
0.0
1040
0.0
1070
     0
1002
{
1002
}
1002
}
  0
ENDSEC
  0
EOF
